  0
SECTION
  2
HEADER
  9
$ACADVER
  1
AC1015
  9
$ACADMAINTVER
 70
    20
  9
$DWGCODEPAGE
  3
ANSI_1252
  9
$INSBASE
 10
0.0
 20
0.0
 30
0.0
  9
$EXTMIN
 10
-149.3686828613282
 20
-2.115350723266602
 30
0.0
  9
$EXTMAX
 10
60.63131713867187
 20
294.8846492767334
 30
0.0
  9
$LIMMIN
 10
334.8782958984375
 20
-1675.322021484375
  9
$LIMMAX
 10
792.8021850585937
 20
-1057.550048828125
  9
$ORTHOMODE
 70
     0
  9
$REGENMODE
 70
     1
  9
$FILLMODE
 70
     1
  9
$QTEXTMODE
 70
     0
  9
$MIRRTEXT
 70
     1
  9
$LTSCALE
 40
1.0
  9
$ATTMODE
 70
     1
  9
$TEXTSIZE
 40
0.2
  9
$TRACEWID
 40
0.05
  9
$TEXTSTYLE
  7
STANDARD
  9
$CLAYER
  8
0
  9
$CELTYPE
  6
CONTINUOUS
  9
$CECOLOR
 62
   256
  9
$CELTSCALE
 40
1.0
  9
$DISPSILH
 70
     0
  9
$DIMSCALE
 40
1.0
  9
$DIMASZ
 40
0.18
  9
$DIMEXO
 40
0.0625
  9
$DIMDLI
 40
0.38
  9
$DIMRND
 40
0.0
  9
$DIMDLE
 40
0.0
  9
$DIMEXE
 40
0.18
  9
$DIMTP
 40
0.0
  9
$DIMTM
 40
0.0
  9
$DIMTXT
 40
0.18
  9
$DIMCEN
 40
0.09
  9
$DIMTSZ
 40
0.0
  9
$DIMTOL
 70
     0
  9
$DIMLIM
 70
     0
  9
$DIMTIH
 70
     1
  9
$DIMTOH
 70
     1
  9
$DIMSE1
 70
     0
  9
$DIMSE2
 70
     0
  9
$DIMTAD
 70
     0
  9
$DIMZIN
 70
     0
  9
$DIMBLK
  1

  9
$DIMASO
 70
     1
  9
$DIMSHO
 70
     1
  9
$DIMPOST
  1

  9
$DIMAPOST
  1

  9
$DIMALT
 70
     0
  9
$DIMALTD
 70
     2
  9
$DIMALTF
 40
25.4
  9
$DIMLFAC
 40
1.0
  9
$DIMTOFL
 70
     0
  9
$DIMTVP
 40
0.0
  9
$DIMTIX
 70
     0
  9
$DIMSOXD
 70
     0
  9
$DIMSAH
 70
     0
  9
$DIMBLK1
  1

  9
$DIMBLK2
  1

  9
$DIMSTYLE
  2
STANDARD
  9
$DIMCLRD
 70
     0
  9
$DIMCLRE
 70
     0
  9
$DIMCLRT
 70
     0
  9
$DIMTFAC
 40
1.0
  9
$DIMGAP
 40
0.09
  9
$DIMJUST
 70
     0
  9
$DIMSD1
 70
     0
  9
$DIMSD2
 70
     0
  9
$DIMTOLJ
 70
     1
  9
$DIMTZIN
 70
     0
  9
$DIMALTZ
 70
     0
  9
$DIMALTTZ
 70
     0
  9
$DIMUPT
 70
     0
  9
$DIMDEC
 70
     4
  9
$DIMTDEC
 70
     4
  9
$DIMALTU
 70
     2
  9
$DIMALTTD
 70
     2
  9
$DIMTXSTY
  7
STANDARD
  9
$DIMAUNIT
 70
     0
  9
$DIMADEC
 70
     0
  9
$DIMALTRND
 40
0.0
  9
$DIMAZIN
 70
     0
  9
$DIMDSEP
 70
    46
  9
$DIMATFIT
 70
     3
  9
$DIMFRAC
 70
     0
  9
$DIMLDRBLK
  1

  9
$DIMLUNIT
 70
     2
  9
$DIMLWD
 70
    -2
  9
$DIMLWE
 70
    -2
  9
$DIMTMOVE
 70
     0
  9
$LUNITS
 70
     2
  9
$LUPREC
 70
     4
  9
$SKETCHINC
 40
0.1
  9
$FILLETRAD
 40
0.0
  9
$AUNITS
 70
     0
  9
$AUPREC
 70
     3
  9
$MENU
  1
acad
  9
$ELEVATION
 40
0.0
  9
$PELEVATION
 40
0.0
  9
$THICKNESS
 40
0.0
  9
$LIMCHECK
 70
     0
  9
$CHAMFERA
 40
0.0
  9
$CHAMFERB
 40
0.0
  9
$CHAMFERC
 40
0.0
  9
$CHAMFERD
 40
0.0
  9
$SKPOLY
 70
     0
  9
$TDCREATE
 40
2444972.083333333
  9
$TDUCREATE
 40
2444972.000000000
  9
$TDUPDATE
 40
2455686.356701933
  9
$TDUUPDATE
 40
2455686.273368599
  9
$TDINDWG
 40
0.0002358565
  9
$TDUSRTIMER
 40
0.0002358565
  9
$USRTIMER
 70
     1
  9
$ANGBASE
 50
0.0
  9
$ANGDIR
 70
     0
  9
$PDMODE
 70
     0
  9
$PDSIZE
 40
0.0
  9
$PLINEWID
 40
0.0
  9
$SPLFRAME
 70
     0
  9
$SPLINETYPE
 70
     6
  9
$SPLINESEGS
 70
     8
  9
$HANDSEED
  5
3FB
  9
$SURFTAB1
 70
     6
  9
$SURFTAB2
 70
     6
  9
$SURFTYPE
 70
     6
  9
$SURFU
 70
     6
  9
$SURFV
 70
     6
  9
$UCSBASE
  2

  9
$UCSNAME
  2

  9
$UCSORG
 10
0.0
 20
0.0
 30
0.0
  9
$UCSXDIR
 10
1.0
 20
0.0
 30
0.0
  9
$UCSYDIR
 10
0.0
 20
1.0
 30
0.0
  9
$UCSORTHOREF
  2

  9
$UCSORTHOVIEW
 70
     0
  9
$UCSORGTOP
 10
0.0
 20
0.0
 30
0.0
  9
$UCSORGBOTTOM
 10
0.0
 20
0.0
 30
0.0
  9
$UCSORGLEFT
 10
0.0
 20
0.0
 30
0.0
  9
$UCSORGRIGHT
 10
0.0
 20
0.0
 30
0.0
  9
$UCSORGFRONT
 10
0.0
 20
0.0
 30
0.0
  9
$UCSORGBACK
 10
0.0
 20
0.0
 30
0.0
  9
$PUCSBASE
  2

  9
$PUCSNAME
  2

  9
$PUCSORG
 10
0.0
 20
0.0
 30
0.0
  9
$PUCSXDIR
 10
1.0
 20
0.0
 30
0.0
  9
$PUCSYDIR
 10
0.0
 20
1.0
 30
0.0
  9
$PUCSORTHOREF
  2

  9
$PUCSORTHOVIEW
 70
     0
  9
$PUCSORGTOP
 10
0.0
 20
0.0
 30
0.0
  9
$PUCSORGBOTTOM
 10
0.0
 20
0.0
 30
0.0
  9
$PUCSORGLEFT
 10
0.0
 20
0.0
 30
0.0
  9
$PUCSORGRIGHT
 10
0.0
 20
0.0
 30
0.0
  9
$PUCSORGFRONT
 10
0.0
 20
0.0
 30
0.0
  9
$PUCSORGBACK
 10
0.0
 20
0.0
 30
0.0
  9
$USERI1
 70
     0
  9
$USERI2
 70
     0
  9
$USERI3
 70
     0
  9
$USERI4
 70
     0
  9
$USERI5
 70
     0
  9
$USERR1
 40
0.0
  9
$USERR2
 40
0.0
  9
$USERR3
 40
0.0
  9
$USERR4
 40
0.0
  9
$USERR5
 40
0.0
  9
$WORLDVIEW
 70
     1
  9
$SHADEDGE
 70
     3
  9
$SHADEDIF
 70
    70
  9
$TILEMODE
 70
     1
  9
$MAXACTVP
 70
    16
  9
$PINSBASE
 10
0.0
 20
0.0
 30
0.0
  9
$PLIMCHECK
 70
     0
  9
$PEXTMIN
 10
1.000000000000000E+20
 20
1.000000000000000E+20
 30
1.000000000000000E+20
  9
$PEXTMAX
 10
-1.000000000000000E+20
 20
-1.000000000000000E+20
 30
-1.000000000000000E+20
  9
$PLIMMIN
 10
334.8782958984375
 20
-1675.322021484375
  9
$PLIMMAX
 10
792.8021850585937
 20
-1057.550048828125
  9
$UNITMODE
 70
     0
  9
$VISRETAIN
 70
     0
  9
$PLINEGEN
 70
     1
  9
$PSLTSCALE
 70
     0
  9
$TREEDEPTH
 70
  3020
  9
$CMLSTYLE
  2
STANDARD
  9
$CMLJUST
 70
     0
  9
$CMLSCALE
 40
1.0
  9
$PROXYGRAPHICS
 70
     0
  9
$MEASUREMENT
 70
     1
  9
$CELWEIGHT
370
    -1
  9
$ENDCAPS
280
     0
  9
$JOINSTYLE
280
     0
  9
$LWDISPLAY
290
     0
  9
$INSUNITS
 70
     0
  9
$HYPERLINKBASE
  1

  9
$STYLESHEET
  1

  9
$XEDIT
290
     1
  9
$CEPSNTYPE
380
     0
  9
$PSTYLEMODE
290
     1
  9
$FINGERPRINTGUID
  2
{9E354210-7893-4EE6-B24C-CFD41A024902}
  9
$VERSIONGUID
  2
{868AB07D-15ED-434C-9F81-79BC8762713D}
  9
$EXTNAMES
290
     1
  9
$PSVPSCALE
 40
0.0
  9
$OLESTARTUP
290
     0
  0
ENDSEC
  0
SECTION
  2
CLASSES
  0
CLASS
  1
IMAGE
  2
AcDbRasterImage
  3
ISM
 90
    34943
280
     0
281
     1
  0
CLASS
  1
DICTIONARYVAR
  2
AcDbDictionaryVar
  3
ObjectDBX Classes
 90
        0
280
     0
281
     0
  0
CLASS
  1
RASTERVARIABLES
  2
AcDbRasterVariables
  3
ISM
 90
    32768
280
     0
281
     0
  0
CLASS
  1
IMAGEDEF
  2
AcDbRasterImageDef
  3
ISM
 90
    32768
280
     0
281
     0
  0
CLASS
  1
IMAGEDEF_REACTOR
  2
AcDbRasterImageDefReactor
  3
ISM
 90
    32769
280
     0
281
     0
  0
CLASS
  1
IDBUFFER
  2
AcDbIdBuffer
  3
ObjectDBX Classes
 90
    32768
280
     0
281
     0
  0
CLASS
  1
SPATIAL_FILTER
  2
AcDbSpatialFilter
  3
ObjectDBX Classes
 90
    32768
280
     0
281
     0
  0
CLASS
  1
SORTENTSTABLE
  2
AcDbSortentsTable
  3
ObjectDBX Classes
 90
    32768
280
     0
281
     0
  0
CLASS
  1
LAYER_INDEX
  2
AcDbLayerIndex
  3
ObjectDBX Classes
 90
    32768
280
     0
281
     0
  0
CLASS
  1
SPATIAL_INDEX
  2
AcDbSpatialIndex
  3
ObjectDBX Classes
 90
    32768
280
     0
281
     0
  0
CLASS
  1
OBJECT_PTR
  2
CAseDLPNTableRecord
  3
ASE-LPNTableRecord
 90
    32769
280
     0
281
     0
  0
CLASS
  1
LAYOUT
  2
AcDbLayout
  3
ObjectDBX Classes
 90
        0
280
     0
281
     0
  0
CLASS
  1
PLOTSETTINGS
  2
AcDbPlotSettings
  3
ObjectDBX Classes
 90
    32768
280
     0
281
     0
  0
CLASS
  1
ACDBDICTIONARYWDFLT
  2
AcDbDictionaryWithDefault
  3
ObjectDBX Classes
 90
        0
280
     0
281
     0
  0
CLASS
  1
ACDBPLACEHOLDER
  2
AcDbPlaceHolder
  3
ObjectDBX Classes
 90
        0
280
     0
281
     0
  0
CLASS
  1
VBA_PROJECT
  2
AcDbVbaProject
  3
acad
 90
    32768
280
     0
281
     0
  0
CLASS
  1
WIPEOUT
  2
AcDbWipeout
  3
"WipeOut|Product Desc: Object Enabler for WipeOut entity                        |Company: Autodesk, Inc.                        |WEB Address: www.autodesk.com"
 90
    34943
280
     0
281
     1
  0
CLASS
  1
WIPEOUTVARIABLES
  2
AcDbWipeoutVariables
  3
"WipeOut|Product Desc:     WipeOut Dbx Application|Company:          Autodesk, Inc.|WEB Address:      www.autodesk.com"
 90
    32768
280
     0
281
     0
  0
CLASS
  1
RTEXT
  2
RText
  3
RText|AutoCAD Express Tool|expresstools@autodesk.com
 90
    32768
280
     0
281
     1
  0
CLASS
  1
ARCALIGNEDTEXT
  2
AcDbArcAlignedText
  3
ATEXT|AutoCAD Express Tool|expresstools@autodesk.com
 90
    32768
280
     0
281
     0
  0
CLASS
  1
MATERIAL
  2
AcDbMaterial
  3
ObjectDBX Classes
 90
     1153
280
     0
281
     0
  0
CLASS
  1
VISUALSTYLE
  2
AcDbVisualStyle
  3
ObjectDBX Classes
 90
     4095
280
     0
281
     0
  0
CLASS
  1
TABLESTYLE
  2
AcDbTableStyle
  3
ObjectDBX Classes
 90
     4095
280
     0
281
     0
  0
CLASS
  1
SCALE
  2
AcDbScale
  3
ObjectDBX Classes
 90
     1153
280
     0
281
     0
  0
CLASS
  1
MLEADERSTYLE
  2
AcDbMLeaderStyle
  3
ACDB_MLEADERSTYLE_CLASS
 90
     4095
280
     0
281
     0
  0
CLASS
  1
CELLSTYLEMAP
  2
AcDbCellStyleMap
  3
ObjectDBX Classes
 90
     1152
280
     0
281
     0
  0
ENDSEC
  0
SECTION
  2
TABLES
  0
TABLE
  2
VPORT
  5
7
330
0
100
AcDbSymbolTable
 70
     1
  0
VPORT
  5
15
330
7
100
AcDbSymbolTableRecord
100
AcDbViewportTableRecord
  2
*ACTIVE
 70
     0
 10
0.0
 20
0.0
 11
1.0
 21
1.0
 12
-44.36868286132818
 22
146.3846492767334
 13
0.0
 23
0.0
 14
1.0
 24
1.0
 15
0.0
 25
0.0
 16
0.0
 26
0.0
 36
1.0
 17
0.0
 27
0.0
 37
0.0
 40
299.1865030674846
 41
2.292383292383292
 42
50.0
 43
0.0
 44
0.0
 50
0.0
 51
0.0
 71
     0
 72
   100
 73
     1
 74
     1
 75
     0
 76
     0
 77
     0
 78
     0
281
     0
 65
     1
110
0.0
120
0.0
130
0.0
111
1.0
121
0.0
131
0.0
112
0.0
122
1.0
132
0.0
 79
     0
146
0.0
  0
ENDTAB
  0
TABLE
  2
LTYPE
  5
4
330
0
100
AcDbSymbolTable
 70
     2
  0
LTYPE
  5
11
330
4
100
AcDbSymbolTableRecord
100
AcDbLinetypeTableRecord
  2
BYBLOCK
 70
     0
  3

 72
    65
 73
     0
 40
0.0
  0
LTYPE
  5
12
330
4
100
AcDbSymbolTableRecord
100
AcDbLinetypeTableRecord
  2
BYLAYER
 70
     0
  3

 72
    65
 73
     0
 40
0.0
  0
LTYPE
  5
13
330
4
100
AcDbSymbolTableRecord
100
AcDbLinetypeTableRecord
  2
CONTINUOUS
 70
     0
  3
Solid line
 72
    65
 73
     0
 40
0.0
  0
LTYPE
  5
1D
330
4
100
AcDbSymbolTableRecord
100
AcDbLinetypeTableRecord
  2
CENTER2
 70
     0
  3

 72
    65
 73
     4
 40
25.39999961853027
 49
19.0499997138977
 74
     0
 49
-3.174999952316284
 74
     0
 49
3.174999952316284
 74
     0
 49
-3.174999952316284
 74
     0
  0
ENDTAB
  0
TABLE
  2
LAYER
  5
2
330
0
100
AcDbSymbolTable
 70
    12
  0
LAYER
  5
14
102
{ACAD_XDICTIONARY
360
39C
102
}
330
2
100
AcDbSymbolTableRecord
100
AcDbLayerTableRecord
  2
0
 70
     0
 62
     7
  6
CONTINUOUS
370
    -3
390
34C
  0
LAYER
  5
1E
102
{ACAD_XDICTIONARY
360
39E
102
}
330
2
100
AcDbSymbolTableRecord
100
AcDbLayerTableRecord
  2
AM_0
 70
     0
 62
     7
  6
CONTINUOUS
370
    -3
390
34C
  0
LAYER
  5
1F
102
{ACAD_XDICTIONARY
360
3A0
102
}
330
2
100
AcDbSymbolTableRecord
100
AcDbLayerTableRecord
  2
AM_1
 70
     0
 62
     7
  6
CONTINUOUS
370
    -3
390
34C
  0
LAYER
  5
20
102
{ACAD_XDICTIONARY
360
3A2
102
}
330
2
100
AcDbSymbolTableRecord
100
AcDbLayerTableRecord
  2
AM_2
 70
     0
 62
     7
  6
CONTINUOUS
370
    -3
390
34C
  0
LAYER
  5
21
102
{ACAD_XDICTIONARY
360
3A4
102
}
330
2
100
AcDbSymbolTableRecord
100
AcDbLayerTableRecord
  2
MODELLO_MODELLO
 70
     0
 62
     7
  6
CONTINUOUS
370
    -3
390
34C
  0
LAYER
  5
22
102
{ACAD_XDICTIONARY
360
3A6
102
}
330
2
100
AcDbSymbolTableRecord
100
AcDbLayerTableRecord
  2
LINEESCR_LINEESCR
 70
     0
 62
     7
  6
CONTINUOUS
370
    -3
390
34C
  0
LAYER
  5
23
102
{ACAD_XDICTIONARY
360
3A8
102
}
330
2
100
AcDbSymbolTableRecord
100
AcDbLayerTableRecord
  2
QUOTE_QUOTE
 70
     0
 62
     7
  6
CONTINUOUS
370
    -3
390
34C
  0
LAYER
  5
24
102
{ACAD_XDICTIONARY
360
3AA
102
}
330
2
100
AcDbSymbolTableRecord
100
AcDbLayerTableRecord
  2
AM_10
 70
     0
 62
     7
  6
CONTINUOUS
370
    -3
390
34C
  0
LAYER
  5
25
102
{ACAD_XDICTIONARY
360
3AC
102
}
330
2
100
AcDbSymbolTableRecord
100
AcDbLayerTableRecord
  2
AM_8
 70
     0
 62
     7
  6
CONTINUOUS
370
    -3
390
34C
  0
LAYER
  5
26
102
{ACAD_XDICTIONARY
360
3AE
102
}
330
2
100
AcDbSymbolTableRecord
100
AcDbLayerTableRecord
  2
15
 70
     0
 62
     7
  6
CONTINUOUS
370
    -3
390
34C
  0
LAYER
  5
27
102
{ACAD_XDICTIONARY
360
3B0
102
}
330
2
100
AcDbSymbolTableRecord
100
AcDbLayerTableRecord
  2
54
 70
     0
 62
     7
  6
CONTINUOUS
370
    -3
390
34C
  0
LAYER
  5
28
330
2
100
AcDbSymbolTableRecord
100
AcDbLayerTableRecord
  2
DEFPOINTS
 70
     0
 62
     7
  6
CONTINUOUS
290
     0
370
    -3
390
34C
  0
ENDTAB
  0
TABLE
  2
STYLE
  5
3
330
0
100
AcDbSymbolTable
 70
    14
  0
STYLE
  5
17
330
3
100
AcDbSymbolTableRecord
100
AcDbTextStyleTableRecord
  2
STANDARD
 70
     0
 40
0.0
 41
1.0
 50
0.0
 71
     0
 42
0.2
  3
txt
  4

  0
STYLE
  5
29
330
3
100
AcDbSymbolTableRecord
100
AcDbTextStyleTableRecord
  2
TSTYLE1
 70
     0
 40
7.0
 41
0.8
 50
0.0
 71
     0
 42
0.2
  3
txt
  4

  0
STYLE
  5
2A
330
3
100
AcDbSymbolTableRecord
100
AcDbTextStyleTableRecord
  2
TSTYLE2
 70
     0
 40
1.679999947547912
 41
1.0
 50
0.0
 71
     0
 42
0.2
  3
txt
  4

  0
STYLE
  5
2B
330
3
100
AcDbSymbolTableRecord
100
AcDbTextStyleTableRecord
  2
TSTYLE3
 70
     0
 40
2.519999980926513
 41
1.0
 50
0.0
 71
     0
 42
0.2
  3
txt
  4

  0
STYLE
  5
2C
330
3
100
AcDbSymbolTableRecord
100
AcDbTextStyleTableRecord
  2
TSTYLE4
 70
     0
 40
2.940000057220458
 41
1.0
 50
0.0
 71
     0
 42
0.2
  3
txt
  4

  0
STYLE
  5
2D
330
3
100
AcDbSymbolTableRecord
100
AcDbTextStyleTableRecord
  2
TSTYLE5
 70
     0
 40
1.259999990463256
 41
1.0
 50
0.0
 71
     0
 42
0.2
  3
txt
  4

  0
STYLE
  5
2E
330
3
100
AcDbSymbolTableRecord
100
AcDbTextStyleTableRecord
  2
TSTYLE6
 70
     0
 40
1.732499957084655
 41
1.0
 50
0.0
 71
     0
 42
0.2
  3
txt
  4

  0
STYLE
  5
2F
330
3
100
AcDbSymbolTableRecord
100
AcDbTextStyleTableRecord
  2
TSTYLE7
 70
     0
 40
3.674999952316284
 41
1.0
 50
0.0
 71
     0
 42
0.2
  3
txt
  4

  0
STYLE
  5
30
330
3
100
AcDbSymbolTableRecord
100
AcDbTextStyleTableRecord
  2
TSTYLE8
 70
     0
 40
2.11679983139038
 41
1.0
 50
0.0
 71
     0
 42
0.2
  3
txt
  4

  0
STYLE
  5
31
330
3
100
AcDbSymbolTableRecord
100
AcDbTextStyleTableRecord
  2
TSTYLE9
 70
     0
 40
1.3125
 41
1.0
 50
0.0
 71
     0
 42
0.2
  3
txt
  4

  0
STYLE
  5
32
330
3
100
AcDbSymbolTableRecord
100
AcDbTextStyleTableRecord
  2
TSTYLE10
 70
     0
 40
5.880000114440917
 41
1.0
 50
0.0
 71
     0
 42
0.2
  3
txt
  4

  0
STYLE
  5
33
330
3
100
AcDbSymbolTableRecord
100
AcDbTextStyleTableRecord
  2
TSTYLE11
 70
     0
 40
1.889999985694885
 41
1.0
 50
0.0
 71
     0
 42
0.2
  3
txt
  4

  0
STYLE
  5
34
330
3
100
AcDbSymbolTableRecord
100
AcDbTextStyleTableRecord
  2
TSTYLE12
 70
     0
 40
1.799999952316284
 41
0.8
 50
0.0
 71
     0
 42
0.2
  3
txt
  4

  0
STYLE
  5
35
330
3
100
AcDbSymbolTableRecord
100
AcDbTextStyleTableRecord
  2
TSTYLE13
 70
     0
 40
3.5
 41
0.8
 50
0.0
 71
     0
 42
0.2
  3
txt
  4

  0
ENDTAB
  0
TABLE
  2
VIEW
  5
5
330
0
100
AcDbSymbolTable
 70
     0
  0
ENDTAB
  0
TABLE
  2
UCS
  5
6
330
0
100
AcDbSymbolTable
 70
     0
  0
ENDTAB
  0
TABLE
  2
APPID
  5
8
330
0
100
AcDbSymbolTable
 70
     3
  0
APPID
  5
16
330
8
100
AcDbSymbolTableRecord
100
AcDbRegAppTableRecord
  2
ACAD
 70
     0
  0
APPID
  5
3B4
330
8
100
AcDbSymbolTableRecord
100
AcDbRegAppTableRecord
  2
DCO15
 70
     0
  0
APPID
  5
3F6
330
8
100
AcDbSymbolTableRecord
100
AcDbRegAppTableRecord
  2
ACAD_MLEADERVER
 70
     0
  0
ENDTAB
  0
TABLE
  2
DIMSTYLE
  5
9
330
0
100
AcDbSymbolTable
 70
     3
100
AcDbDimStyleTable
 71
     0
  0
DIMSTYLE
105
18
330
9
100
AcDbSymbolTableRecord
100
AcDbDimStyleTableRecord
  2
STANDARD
 70
     0
289
     0
340
17
  0
DIMSTYLE
105
36
330
9
100
AcDbSymbolTableRecord
100
AcDbDimStyleTableRecord
  2
DSTYLE1
 70
     0
 41
3.0
 42
4.000000046877403
 44
1.166666666666666
 73
     0
 74
     0
140
3.5
145
0.7
146
0.6000000238418579
147
0.0
178
     7
271
     3
289
     0
340
35
  0
DIMSTYLE
105
37
330
9
100
AcDbSymbolTableRecord
100
AcDbDimStyleTableRecord
  2
DSTYLE2
 70
     0
 41
3.0
 42
3.99999987466225
 44
1.166666666666666
 73
     0
 74
     0
140
3.5
145
0.7
146
0.6000000238418579
147
0.0
174
     1
178
     7
271
     3
289
     0
340
35
  0
ENDTAB
  0
TABLE
  2
BLOCK_RECORD
  5
1
330
0
100
AcDbSymbolTable
 70
    83
  0
BLOCK_RECORD
  5
A
330
1
100
AcDbSymbolTableRecord
100
AcDbBlockTableRecord
  2
*MODEL_SPACE
340
398
  0
BLOCK_RECORD
  5
B
330
1
100
AcDbSymbolTableRecord
100
AcDbBlockTableRecord
  2
*PAPER_SPACE
340
399
  0
BLOCK_RECORD
  5
38
330
1
100
AcDbSymbolTableRecord
100
AcDbBlockTableRecord
  2
_MODEL_SPACE
340
0
  0
BLOCK_RECORD
  5
39
330
1
100
AcDbSymbolTableRecord
100
AcDbBlockTableRecord
  2
_PAPER_SPACE
340
0
  0
BLOCK_RECORD
  5
3A
330
1
100
AcDbSymbolTableRecord
100
AcDbBlockTableRecord
  2
_S_1
340
0
  0
BLOCK_RECORD
  5
3B
330
1
100
AcDbSymbolTableRecord
100
AcDbBlockTableRecord
  2
_S_10
340
0
102
{BLKREFS
331
187
102
}
  0
BLOCK_RECORD
  5
3C
330
1
100
AcDbSymbolTableRecord
100
AcDbBlockTableRecord
  2
_S_11
340
0
  0
BLOCK_RECORD
  5
3D
330
1
100
AcDbSymbolTableRecord
100
AcDbBlockTableRecord
  2
_S_12
340
0
102
{BLKREFS
331
D8
102
}
  0
BLOCK_RECORD
  5
3E
330
1
100
AcDbSymbolTableRecord
100
AcDbBlockTableRecord
  2
_S_13
340
0
  0
BLOCK_RECORD
  5
3F
330
1
100
AcDbSymbolTableRecord
100
AcDbBlockTableRecord
  2
_S_14
340
0
102
{BLKREFS
331
E1
102
}
  0
BLOCK_RECORD
  5
40
330
1
100
AcDbSymbolTableRecord
100
AcDbBlockTableRecord
  2
_S_15
340
0
  0
BLOCK_RECORD
  5
41
330
1
100
AcDbSymbolTableRecord
100
AcDbBlockTableRecord
  2
_S_16
340
0
102
{BLKREFS
331
EA
102
}
  0
BLOCK_RECORD
  5
42
330
1
100
AcDbSymbolTableRecord
100
AcDbBlockTableRecord
  2
_S_17
340
0
  0
BLOCK_RECORD
  5
43
330
1
100
AcDbSymbolTableRecord
100
AcDbBlockTableRecord
  2
_S_18
340
0
102
{BLKREFS
331
F3
102
}
  0
BLOCK_RECORD
  5
44
330
1
100
AcDbSymbolTableRecord
100
AcDbBlockTableRecord
  2
_S_19
340
0
  0
BLOCK_RECORD
  5
45
330
1
100
AcDbSymbolTableRecord
100
AcDbBlockTableRecord
  2
_S_2
340
0
102
{BLKREFS
331
CF
102
}
  0
BLOCK_RECORD
  5
46
330
1
100
AcDbSymbolTableRecord
100
AcDbBlockTableRecord
  2
_S_20
340
0
102
{BLKREFS
331
FA
102
}
  0
BLOCK_RECORD
  5
47
330
1
100
AcDbSymbolTableRecord
100
AcDbBlockTableRecord
  2
_S_21
340
0
  0
BLOCK_RECORD
  5
48
330
1
100
AcDbSymbolTableRecord
100
AcDbBlockTableRecord
  2
_S_22
340
0
102
{BLKREFS
331
109
102
}
  0
BLOCK_RECORD
  5
49
330
1
100
AcDbSymbolTableRecord
100
AcDbBlockTableRecord
  2
_S_23
340
0
  0
BLOCK_RECORD
  5
4A
330
1
100
AcDbSymbolTableRecord
100
AcDbBlockTableRecord
  2
_S_24
340
0
102
{BLKREFS
331
112
102
}
  0
BLOCK_RECORD
  5
4B
330
1
100
AcDbSymbolTableRecord
100
AcDbBlockTableRecord
  2
_S_25
340
0
  0
BLOCK_RECORD
  5
4C
330
1
100
AcDbSymbolTableRecord
100
AcDbBlockTableRecord
  2
_S_26
340
0
102
{BLKREFS
331
11B
102
}
  0
BLOCK_RECORD
  5
4D
330
1
100
AcDbSymbolTableRecord
100
AcDbBlockTableRecord
  2
_S_27
340
0
  0
BLOCK_RECORD
  5
4E
330
1
100
AcDbSymbolTableRecord
100
AcDbBlockTableRecord
  2
_S_28
340
0
102
{BLKREFS
331
122
102
}
  0
BLOCK_RECORD
  5
4F
330
1
100
AcDbSymbolTableRecord
100
AcDbBlockTableRecord
  2
_S_29
340
0
  0
BLOCK_RECORD
  5
50
330
1
100
AcDbSymbolTableRecord
100
AcDbBlockTableRecord
  2
_S_3
340
0
  0
BLOCK_RECORD
  5
51
330
1
100
AcDbSymbolTableRecord
100
AcDbBlockTableRecord
  2
_S_30
340
0
  0
BLOCK_RECORD
  5
52
330
1
100
AcDbSymbolTableRecord
100
AcDbBlockTableRecord
  2
_S_31
340
0
  0
BLOCK_RECORD
  5
53
330
1
100
AcDbSymbolTableRecord
100
AcDbBlockTableRecord
  2
_S_32
340
0
  0
BLOCK_RECORD
  5
54
330
1
100
AcDbSymbolTableRecord
100
AcDbBlockTableRecord
  2
_S_33
340
0
  0
BLOCK_RECORD
  5
55
330
1
100
AcDbSymbolTableRecord
100
AcDbBlockTableRecord
  2
_S_34
340
0
  0
BLOCK_RECORD
  5
56
330
1
100
AcDbSymbolTableRecord
100
AcDbBlockTableRecord
  2
_S_35
340
0
  0
BLOCK_RECORD
  5
57
330
1
100
AcDbSymbolTableRecord
100
AcDbBlockTableRecord
  2
_S_36
340
0
  0
BLOCK_RECORD
  5
58
330
1
100
AcDbSymbolTableRecord
100
AcDbBlockTableRecord
  2
_S_37
340
0
  0
BLOCK_RECORD
  5
59
330
1
100
AcDbSymbolTableRecord
100
AcDbBlockTableRecord
  2
_S_4
340
0
102
{BLKREFS
331
131
102
}
  0
BLOCK_RECORD
  5
5A
330
1
100
AcDbSymbolTableRecord
100
AcDbBlockTableRecord
  2
_S_5
340
0
  0
BLOCK_RECORD
  5
5B
330
1
100
AcDbSymbolTableRecord
100
AcDbBlockTableRecord
  2
_S_6
340
0
102
{BLKREFS
331
173
331
174
102
}
  0
BLOCK_RECORD
  5
5C
330
1
100
AcDbSymbolTableRecord
100
AcDbBlockTableRecord
  2
_S_7
340
0
  0
BLOCK_RECORD
  5
5D
330
1
100
AcDbSymbolTableRecord
100
AcDbBlockTableRecord
  2
_S_8
340
0
102
{BLKREFS
331
17E
102
}
  0
BLOCK_RECORD
  5
5E
330
1
100
AcDbSymbolTableRecord
100
AcDbBlockTableRecord
  2
_S_9
340
0
  0
BLOCK_RECORD
  5
5F
330
1
100
AcDbSymbolTableRecord
100
AcDbBlockTableRecord
  2
_X1
340
0
102
{BLKREFS
331
138
102
}
  0
BLOCK_RECORD
  5
60
330
1
100
AcDbSymbolTableRecord
100
AcDbBlockTableRecord
  2
DMBLK374
340
0
  0
BLOCK_RECORD
  5
61
330
1
100
AcDbSymbolTableRecord
100
AcDbBlockTableRecord
  2
DMBLK375
340
0
  0
BLOCK_RECORD
  5
62
330
1
100
AcDbSymbolTableRecord
100
AcDbBlockTableRecord
  2
DMBLK376
340
0
  0
BLOCK_RECORD
  5
63
330
1
100
AcDbSymbolTableRecord
100
AcDbBlockTableRecord
  2
DMBLK377
340
0
  0
BLOCK_RECORD
  5
64
330
1
100
AcDbSymbolTableRecord
100
AcDbBlockTableRecord
  2
DMBLK378
340
0
  0
BLOCK_RECORD
  5
65
330
1
100
AcDbSymbolTableRecord
100
AcDbBlockTableRecord
  2
DMBLK379
340
0
  0
BLOCK_RECORD
  5
66
330
1
100
AcDbSymbolTableRecord
100
AcDbBlockTableRecord
  2
DMBLK380
340
0
  0
BLOCK_RECORD
  5
67
330
1
100
AcDbSymbolTableRecord
100
AcDbBlockTableRecord
  2
DMBLK381
340
0
  0
BLOCK_RECORD
  5
68
330
1
100
AcDbSymbolTableRecord
100
AcDbBlockTableRecord
  2
DMBLK382
340
0
  0
BLOCK_RECORD
  5
69
330
1
100
AcDbSymbolTableRecord
100
AcDbBlockTableRecord
  2
DMBLK383
340
0
  0
BLOCK_RECORD
  5
6A
330
1
100
AcDbSymbolTableRecord
100
AcDbBlockTableRecord
  2
DMBLK384
340
0
  0
BLOCK_RECORD
  5
6B
330
1
100
AcDbSymbolTableRecord
100
AcDbBlockTableRecord
  2
DMBLK385
340
0
  0
BLOCK_RECORD
  5
6C
330
1
100
AcDbSymbolTableRecord
100
AcDbBlockTableRecord
  2
DMBLK386
340
0
  0
BLOCK_RECORD
  5
6D
330
1
100
AcDbSymbolTableRecord
100
AcDbBlockTableRecord
  2
DMBLK387
340
0
  0
BLOCK_RECORD
  5
6E
330
1
100
AcDbSymbolTableRecord
100
AcDbBlockTableRecord
  2
SE0
340
0
102
{BLKREFS
331
18C
102
}
  0
BLOCK_RECORD
  5
6F
330
1
100
AcDbSymbolTableRecord
100
AcDbBlockTableRecord
  2
SE1
340
0
102
{BLKREFS
331
18F
102
}
  0
BLOCK_RECORD
  5
70
330
1
100
AcDbSymbolTableRecord
100
AcDbBlockTableRecord
  2
SE10
340
0
102
{BLKREFS
331
1B4
102
}
  0
BLOCK_RECORD
  5
71
330
1
100
AcDbSymbolTableRecord
100
AcDbBlockTableRecord
  2
SE11
340
0
102
{BLKREFS
331
1B7
102
}
  0
BLOCK_RECORD
  5
72
330
1
100
AcDbSymbolTableRecord
100
AcDbBlockTableRecord
  2
SE12
340
0
102
{BLKREFS
331
1BA
102
}
  0
BLOCK_RECORD
  5
73
330
1
100
AcDbSymbolTableRecord
100
AcDbBlockTableRecord
  2
SE13
340
0
102
{BLKREFS
331
1BD
102
}
  0
BLOCK_RECORD
  5
74
330
1
100
AcDbSymbolTableRecord
100
AcDbBlockTableRecord
  2
SE2
340
0
  0
BLOCK_RECORD
  5
75
330
1
100
AcDbSymbolTableRecord
100
AcDbBlockTableRecord
  2
SE3
340
0
102
{BLKREFS
331
19F
102
}
  0
BLOCK_RECORD
  5
76
330
1
100
AcDbSymbolTableRecord
100
AcDbBlockTableRecord
  2
SE4
340
0
102
{BLKREFS
331
1A2
102
}
  0
BLOCK_RECORD
  5
77
330
1
100
AcDbSymbolTableRecord
100
AcDbBlockTableRecord
  2
SE5
340
0
102
{BLKREFS
331
1A5
102
}
  0
BLOCK_RECORD
  5
78
330
1
100
AcDbSymbolTableRecord
100
AcDbBlockTableRecord
  2
SE6
340
0
102
{BLKREFS
331
1A8
102
}
  0
BLOCK_RECORD
  5
79
330
1
100
AcDbSymbolTableRecord
100
AcDbBlockTableRecord
  2
SE7
340
0
102
{BLKREFS
331
1AB
102
}
  0
BLOCK_RECORD
  5
7A
330
1
100
AcDbSymbolTableRecord
100
AcDbBlockTableRecord
  2
SE8
340
0
102
{BLKREFS
331
1AE
102
}
  0
BLOCK_RECORD
  5
7B
330
1
100
AcDbSymbolTableRecord
100
AcDbBlockTableRecord
  2
SE9
340
0
102
{BLKREFS
331
1B1
102
}
  0
BLOCK_RECORD
  5
7C
330
1
100
AcDbSymbolTableRecord
100
AcDbBlockTableRecord
  2
_MODEL_SPACE1
340
0
  0
BLOCK_RECORD
  5
7D
330
1
100
AcDbSymbolTableRecord
100
AcDbBlockTableRecord
  2
_PAPER_SPACE1
340
0
  0
BLOCK_RECORD
  5
7E
330
1
100
AcDbSymbolTableRecord
100
AcDbBlockTableRecord
  2
_SE_BLANK
340
0
102
{BLKREFS
331
197
331
198
102
}
  0
BLOCK_RECORD
  5
7F
330
1
100
AcDbSymbolTableRecord
100
AcDbBlockTableRecord
  2
_SE_FILLED
340
0
  0
BLOCK_RECORD
  5
80
330
1
100
AcDbSymbolTableRecord
100
AcDbBlockTableRecord
  2
_S_110
340
0
  0
BLOCK_RECORD
  5
81
330
1
100
AcDbSymbolTableRecord
100
AcDbBlockTableRecord
  2
_S_210
340
0
  0
BLOCK_RECORD
  5
82
330
1
100
AcDbSymbolTableRecord
100
AcDbBlockTableRecord
  2
_S_38
340
0
  0
BLOCK_RECORD
  5
83
330
1
100
AcDbSymbolTableRecord
100
AcDbBlockTableRecord
  2
_S_41
340
0
  0
BLOCK_RECORD
  5
84
330
1
100
AcDbSymbolTableRecord
100
AcDbBlockTableRecord
  2
_S_51
340
0
  0
BLOCK_RECORD
  5
85
330
1
100
AcDbSymbolTableRecord
100
AcDbBlockTableRecord
  2
_S_61
340
0
  0
BLOCK_RECORD
  5
86
330
1
100
AcDbSymbolTableRecord
100
AcDbBlockTableRecord
  2
_S_71
340
0
  0
BLOCK_RECORD
  5
87
330
1
100
AcDbSymbolTableRecord
100
AcDbBlockTableRecord
  2
DD
340
0
  0
BLOCK_RECORD
  5
88
330
1
100
AcDbSymbolTableRecord
100
AcDbBlockTableRecord
  2
*D80
340
0
  0
BLOCK_RECORD
  5
89
330
1
100
AcDbSymbolTableRecord
100
AcDbBlockTableRecord
  2
*D81
340
0
  0
BLOCK_RECORD
  5
8A
330
1
100
AcDbSymbolTableRecord
100
AcDbBlockTableRecord
  2
*D82
340
0
  0
ENDTAB
  0
ENDSEC
  0
SECTION
  2
BLOCKS
  0
BLOCK
  5
D
330
A
100
AcDbEntity
  8
0
100
AcDbBlockBegin
  2
*MODEL_SPACE
 70
     0
 10
0.0
 20
0.0
 30
0.0
  3
*MODEL_SPACE
  1

  0
ENDBLK
  5
E
330
A
100
AcDbEntity
  8
0
100
AcDbBlockEnd
  0
BLOCK
  5
F
330
B
100
AcDbEntity
 67
     1
  8
0
100
AcDbBlockBegin
  2
*PAPER_SPACE
 70
     0
 10
0.0
 20
0.0
 30
0.0
  3
*PAPER_SPACE
  1

  0
ENDBLK
  5
10
330
B
100
AcDbEntity
 67
     1
  8
0
100
AcDbBlockEnd
  0
BLOCK
  5
CA
330
38
100
AcDbEntity
  8
0
100
AcDbBlockBegin
  2
_MODEL_SPACE
 70
     0
 10
0.0
 20
0.0
 30
0.0
  3
_MODEL_SPACE
  1

  0
ENDBLK
  5
CB
330
38
100
AcDbEntity
  8
0
100
AcDbBlockEnd
  0
BLOCK
  5
CC
330
39
100
AcDbEntity
  8
0
100
AcDbBlockBegin
  2
_PAPER_SPACE
 70
     0
 10
0.0
 20
0.0
 30
0.0
  3
_PAPER_SPACE
  1

  0
ENDBLK
  5
CD
330
39
100
AcDbEntity
  8
0
100
AcDbBlockEnd
  0
BLOCK
  5
CE
330
3A
100
AcDbEntity
  8
0
100
AcDbBlockBegin
  2
_S_1
 70
     0
 10
0.0
 20
0.0
 30
0.0
  3
_S_1
  1

  0
INSERT
  5
CF
330
3A
100
AcDbEntity
  8
0
100
AcDbBlockReference
  2
_S_2
 10
0.0
 20
0.0
 30
0.0
  0
ENDBLK
  5
D0
330
3A
100
AcDbEntity
  8
0
100
AcDbBlockEnd
  0
BLOCK
  5
D1
330
3B
100
AcDbEntity
  8
0
100
AcDbBlockBegin
  2
_S_10
 70
     0
 10
0.0
 20
0.0
 30
0.0
  3
_S_10
  1

  0
LINE
  5
D2
330
3B
100
AcDbEntity
  8
QUOTE_QUOTE
  6
Continuous
 62
   254
100
AcDbLine
 10
91.1076
 20
173.189
 30
0.0
 11
74.2823
 21
173.189
 31
0.0
  0
LINE
  5
D3
330
3B
100
AcDbEntity
  8
QUOTE_QUOTE
  6
Continuous
 62
   254
100
AcDbLine
 10
91.1076
 20
128.189
 30
0.0
 11
74.2823
 21
128.189
 31
0.0
  0
LINE
  5
D4
330
3B
100
AcDbEntity
  8
QUOTE_QUOTE
  6
Continuous
 62
   254
100
AcDbLine
 10
75.78230000000001
 20
173.189
 30
0.0
 11
75.78230000000001
 21
128.189
 31
0.0
  0
TEXT
  5
D5
330
3B
100
AcDbEntity
  8
QUOTE_QUOTE
  6
Continuous
 62
   254
100
AcDbText
 10
75.03230000000001
 20
148.95
 30
0.0
 40
3.0
  1
45
 50
90.0
 11
72.03230000000001
 21
148.95
 31
0.0
100
AcDbText
 73
     3
  0
ENDBLK
  5
D6
330
3B
100
AcDbEntity
  8
0
100
AcDbBlockEnd
  0
BLOCK
  5
D7
330
3C
100
AcDbEntity
  8
0
100
AcDbBlockBegin
  2
_S_11
 70
     0
 10
0.0
 20
0.0
 30
0.0
  3
_S_11
  1

  0
INSERT
  5
D8
330
3C
100
AcDbEntity
  8
0
100
AcDbBlockReference
  2
_S_12
 10
0.0
 20
0.0
 30
0.0
  0
ENDBLK
  5
D9
330
3C
100
AcDbEntity
  8
0
100
AcDbBlockEnd
  0
BLOCK
  5
DA
330
3D
100
AcDbEntity
  8
0
100
AcDbBlockBegin
  2
_S_12
 70
     0
 10
0.0
 20
0.0
 30
0.0
  3
_S_12
  1

  0
LINE
  5
DB
330
3D
100
AcDbEntity
  8
QUOTE_QUOTE
  6
Continuous
 62
   254
100
AcDbLine
 10
91.1076
 20
173.189
 30
0.0
 11
79.74009999999999
 21
173.189
 31
0.0
  0
LINE
  5
DC
330
3D
100
AcDbEntity
  8
QUOTE_QUOTE
  6
Continuous
 62
   254
100
AcDbLine
 10
92.9826
 20
159.489
 30
0.0
 11
79.74009999999999
 21
159.489
 31
0.0
  0
LINE
  5
DD
330
3D
100
AcDbEntity
  8
QUOTE_QUOTE
  6
Continuous
 62
   254
100
AcDbLine
 10
81.2401
 20
173.189
 30
0.0
 11
81.2401
 21
159.489
 31
0.0
  0
TEXT
  5
DE
330
3D
100
AcDbEntity
  8
QUOTE_QUOTE
  6
Continuous
 62
   254
100
AcDbText
 10
80.4901
 20
163.714
 30
0.0
 40
3.0
  1
13,7
 50
90.0
 11
77.4901
 21
163.714
 31
0.0
100
AcDbText
 73
     3
  0
ENDBLK
  5
DF
330
3D
100
AcDbEntity
  8
0
100
AcDbBlockEnd
  0
BLOCK
  5
E0
330
3E
100
AcDbEntity
  8
0
100
AcDbBlockBegin
  2
_S_13
 70
     0
 10
0.0
 20
0.0
 30
0.0
  3
_S_13
  1

  0
INSERT
  5
E1
330
3E
100
AcDbEntity
  8
0
100
AcDbBlockReference
  2
_S_14
 10
0.0
 20
0.0
 30
0.0
  0
ENDBLK
  5
E2
330
3E
100
AcDbEntity
  8
0
100
AcDbBlockEnd
  0
BLOCK
  5
E3
330
3F
100
AcDbEntity
  8
0
100
AcDbBlockBegin
  2
_S_14
 70
     0
 10
0.0
 20
0.0
 30
0.0
  3
_S_14
  1

  0
LINE
  5
E4
330
3F
100
AcDbEntity
  8
QUOTE_QUOTE
  6
Continuous
 62
   254
100
AcDbLine
 10
92.9826
 20
159.489
 30
0.0
 11
79.74009999999999
 21
159.489
 31
0.0
  0
LINE
  5
E5
330
3F
100
AcDbEntity
  8
QUOTE_QUOTE
  6
Continuous
 62
   254
100
AcDbLine
 10
92.9826
 20
141.889
 30
0.0
 11
79.74009999999999
 21
141.889
 31
0.0
  0
LINE
  5
E6
330
3F
100
AcDbEntity
  8
QUOTE_QUOTE
  6
Continuous
 62
   254
100
AcDbLine
 10
81.2401
 20
159.489
 30
0.0
 11
81.2401
 21
141.889
 31
0.0
  0
TEXT
  5
E7
330
3F
100
AcDbEntity
  8
QUOTE_QUOTE
  6
Continuous
 62
   254
100
AcDbText
 10
80.4901
 20
147.927
 30
0.0
 40
3.0
  1
17,6
 50
90.0
 11
77.4901
 21
147.927
 31
0.0
100
AcDbText
 73
     3
  0
ENDBLK
  5
E8
330
3F
100
AcDbEntity
  8
0
100
AcDbBlockEnd
  0
BLOCK
  5
E9
330
40
100
AcDbEntity
  8
0
100
AcDbBlockBegin
  2
_S_15
 70
     0
 10
0.0
 20
0.0
 30
0.0
  3
_S_15
  1

  0
INSERT
  5
EA
330
40
100
AcDbEntity
  8
0
100
AcDbBlockReference
  2
_S_16
 10
0.0
 20
0.0
 30
0.0
  0
ENDBLK
  5
EB
330
40
100
AcDbEntity
  8
0
100
AcDbBlockEnd
  0
BLOCK
  5
EC
330
41
100
AcDbEntity
  8
0
100
AcDbBlockBegin
  2
_S_16
 70
     0
 10
0.0
 20
0.0
 30
0.0
  3
_S_16
  1

  0
LINE
  5
ED
330
41
100
AcDbEntity
  8
QUOTE_QUOTE
  6
Continuous
 62
   254
100
AcDbLine
 10
92.9826
 20
141.889
 30
0.0
 11
79.74009999999999
 21
141.889
 31
0.0
  0
LINE
  5
EE
330
41
100
AcDbEntity
  8
QUOTE_QUOTE
  6
Continuous
 62
   254
100
AcDbLine
 10
91.1076
 20
128.189
 30
0.0
 11
79.74009999999999
 21
128.189
 31
0.0
  0
LINE
  5
EF
330
41
100
AcDbEntity
  8
QUOTE_QUOTE
  6
Continuous
 62
   254
100
AcDbLine
 10
81.2401
 20
141.889
 30
0.0
 11
81.2401
 21
128.189
 31
0.0
  0
TEXT
  5
F0
330
41
100
AcDbEntity
  8
QUOTE_QUOTE
  6
Continuous
 62
   254
100
AcDbText
 10
80.4901
 20
132.414
 30
0.0
 40
3.0
  1
13,7
 50
90.0
 11
77.4901
 21
132.414
 31
0.0
100
AcDbText
 73
     3
  0
ENDBLK
  5
F1
330
41
100
AcDbEntity
  8
0
100
AcDbBlockEnd
  0
BLOCK
  5
F2
330
42
100
AcDbEntity
  8
0
100
AcDbBlockBegin
  2
_S_17
 70
     0
 10
0.0
 20
0.0
 30
0.0
  3
_S_17
  1

  0
INSERT
  5
F3
330
42
100
AcDbEntity
  8
0
100
AcDbBlockReference
  2
_S_18
 10
0.0
 20
0.0
 30
0.0
  0
ENDBLK
  5
F4
330
42
100
AcDbEntity
  8
0
100
AcDbBlockEnd
  0
BLOCK
  5
F5
330
43
100
AcDbEntity
  8
0
100
AcDbBlockBegin
  2
_S_18
 70
     0
 10
0.0
 20
0.0
 30
0.0
  3
_S_18
  1

  0
LINE
  5
F6
330
43
100
AcDbEntity
  8
QUOTE_QUOTE
  6
Continuous
 62
   254
100
AcDbLine
 10
89.7826
 20
164.686
 30
0.0
 11
103.583
 21
164.686
 31
0.0
  0
TEXT
  5
F7
330
43
100
AcDbEntity
  8
QUOTE_QUOTE
  6
Continuous
 62
   254
100
AcDbText
 10
94.05759999999999
 20
165.436
 30
0.0
 40
3.0
  1
13,8
 11
94.05759999999999
 21
168.436
 31
0.0
100
AcDbText
 73
     3
  0
ENDBLK
  5
F8
330
43
100
AcDbEntity
  8
0
100
AcDbBlockEnd
  0
BLOCK
  5
F9
330
44
100
AcDbEntity
  8
0
100
AcDbBlockBegin
  2
_S_19
 70
     0
 10
0.0
 20
0.0
 30
0.0
  3
_S_19
  1

  0
INSERT
  5
FA
330
44
100
AcDbEntity
  8
0
100
AcDbBlockReference
  2
_S_20
 10
0.0
 20
0.0
 30
0.0
  0
ENDBLK
  5
FB
330
44
100
AcDbEntity
  8
0
100
AcDbBlockEnd
  0
BLOCK
  5
FC
330
45
100
AcDbEntity
  8
0
100
AcDbBlockBegin
  2
_S_2
 70
     0
 10
0.0
 20
0.0
 30
0.0
  3
_S_2
  1

  0
LINE
  5
FD
330
45
100
AcDbEntity
  8
QUOTE_QUOTE
  6
Continuous
 62
   254
100
AcDbLine
 10
87.43259999999999
 20
170.689
 30
0.0
 11
87.43259999999999
 21
189.133
 31
0.0
  0
LINE
  5
FE
330
45
100
AcDbEntity
  8
QUOTE_QUOTE
  6
Continuous
 62
   254
100
AcDbLine
 10
105.933
 20
170.689
 30
0.0
 11
105.933
 21
189.133
 31
0.0
  0
LINE
  5
FF
330
45
100
AcDbEntity
  8
QUOTE_QUOTE
  6
Continuous
 62
   254
100
AcDbLine
 10
87.43259999999999
 20
187.633
 30
0.0
 11
105.933
 21
187.633
 31
0.0
  0
TEXT
  5
100
330
45
100
AcDbEntity
  8
QUOTE_QUOTE
  6
Continuous
 62
   254
100
AcDbText
 10
93.98940000000001
 20
188.383
 30
0.0
 40
3.0
  1
18,5
 11
93.98940000000001
 21
191.383
 31
0.0
100
AcDbText
 73
     3
  0
ENDBLK
  5
101
330
45
100
AcDbEntity
  8
0
100
AcDbBlockEnd
  0
BLOCK
  5
102
330
46
100
AcDbEntity
  8
0
100
AcDbBlockBegin
  2
_S_20
 70
     0
 10
0.0
 20
0.0
 30
0.0
  3
_S_20
  1

  0
LINE
  5
103
330
46
100
AcDbEntity
  8
QUOTE_QUOTE
  6
Continuous
 62
   254
100
AcDbLine
 10
102.258
 20
173.189
 30
0.0
 11
114.495
 21
173.189
 31
0.0
  0
LINE
  5
104
330
46
100
AcDbEntity
  8
QUOTE_QUOTE
  6
Continuous
 62
   254
100
AcDbLine
 10
105.683
 20
154.839
 30
0.0
 11
114.495
 21
154.839
 31
0.0
  0
LINE
  5
105
330
46
100
AcDbEntity
  8
QUOTE_QUOTE
  6
Continuous
 62
   254
100
AcDbLine
 10
112.995
 20
173.189
 30
0.0
 11
112.995
 21
154.839
 31
0.0
  0
TEXT
  5
106
330
46
100
AcDbEntity
  8
QUOTE_QUOTE
  6
Continuous
 62
   254
100
AcDbText
 10
112.245
 20
160.537
 30
0.0
 40
3.0
  1
18,35
 50
90.0
 11
109.245
 21
160.537
 31
0.0
100
AcDbText
 73
     3
  0
ENDBLK
  5
107
330
46
100
AcDbEntity
  8
0
100
AcDbBlockEnd
  0
BLOCK
  5
108
330
47
100
AcDbEntity
  8
0
100
AcDbBlockBegin
  2
_S_21
 70
     0
 10
0.0
 20
0.0
 30
0.0
  3
_S_21
  1

  0
INSERT
  5
109
330
47
100
AcDbEntity
  8
0
100
AcDbBlockReference
  2
_S_22
 10
0.0
 20
0.0
 30
0.0
  0
ENDBLK
  5
10A
330
47
100
AcDbEntity
  8
0
100
AcDbBlockEnd
  0
BLOCK
  5
10B
330
48
100
AcDbEntity
  8
0
100
AcDbBlockBegin
  2
_S_22
 70
     0
 10
0.0
 20
0.0
 30
0.0
  3
_S_22
  1

  0
LINE
  5
10C
330
48
100
AcDbEntity
  8
QUOTE_QUOTE
  6
Continuous
 62
   254
100
AcDbLine
 10
105.683
 20
154.839
 30
0.0
 11
114.495
 21
154.839
 31
0.0
  0
LINE
  5
10D
330
48
100
AcDbEntity
  8
QUOTE_QUOTE
  6
Continuous
 62
   254
100
AcDbLine
 10
104.333
 20
146.539
 30
0.0
 11
114.495
 21
146.539
 31
0.0
  0
LINE
  5
10E
330
48
100
AcDbEntity
  8
QUOTE_QUOTE
  6
Continuous
 62
   254
100
AcDbLine
 10
112.995
 20
160.839
 30
0.0
 11
112.995
 21
140.539
 31
0.0
  0
TEXT
  5
10F
330
48
100
AcDbEntity
  8
QUOTE_QUOTE
  6
Continuous
 62
   254
100
AcDbText
 10
112.245
 20
148.677
 30
0.0
 40
3.0
  1
8,3
 50
90.0
 11
109.245
 21
148.677
 31
0.0
100
AcDbText
 73
     3
  0
ENDBLK
  5
110
330
48
100
AcDbEntity
  8
0
100
AcDbBlockEnd
  0
BLOCK
  5
111
330
49
100
AcDbEntity
  8
0
100
AcDbBlockBegin
  2
_S_23
 70
     0
 10
0.0
 20
0.0
 30
0.0
  3
_S_23
  1

  0
INSERT
  5
112
330
49
100
AcDbEntity
  8
0
100
AcDbBlockReference
  2
_S_24
 10
0.0
 20
0.0
 30
0.0
  0
ENDBLK
  5
113
330
49
100
AcDbEntity
  8
0
100
AcDbBlockEnd
  0
BLOCK
  5
114
330
4A
100
AcDbEntity
  8
0
100
AcDbBlockBegin
  2
_S_24
 70
     0
 10
0.0
 20
0.0
 30
0.0
  3
_S_24
  1

  0
LINE
  5
115
330
4A
100
AcDbEntity
  8
QUOTE_QUOTE
  6
Continuous
 62
   254
100
AcDbLine
 10
104.333
 20
146.539
 30
0.0
 11
114.495
 21
146.539
 31
0.0
  0
LINE
  5
116
330
4A
100
AcDbEntity
  8
QUOTE_QUOTE
  6
Continuous
 62
   254
100
AcDbLine
 10
102.258
 20
128.189
 30
0.0
 11
114.495
 21
128.189
 31
0.0
  0
LINE
  5
117
330
4A
100
AcDbEntity
  8
QUOTE_QUOTE
  6
Continuous
 62
   254
100
AcDbLine
 10
112.995
 20
146.539
 30
0.0
 11
112.995
 21
128.189
 31
0.0
  0
TEXT
  5
118
330
4A
100
AcDbEntity
  8
QUOTE_QUOTE
  6
Continuous
 62
   254
100
AcDbText
 10
112.245
 20
133.887
 30
0.0
 40
3.0
  1
18,35
 50
90.0
 11
109.245
 21
133.887
 31
0.0
100
AcDbText
 73
     3
  0
ENDBLK
  5
119
330
4A
100
AcDbEntity
  8
0
100
AcDbBlockEnd
  0
BLOCK
  5
11A
330
4B
100
AcDbEntity
  8
0
100
AcDbBlockBegin
  2
_S_25
 70
     0
 10
0.0
 20
0.0
 30
0.0
  3
_S_25
  1

  0
INSERT
  5
11B
330
4B
100
AcDbEntity
  8
0
100
AcDbBlockReference
  2
_S_26
 10
0.0
 20
0.0
 30
0.0
  0
ENDBLK
  5
11C
330
4B
100
AcDbEntity
  8
0
100
AcDbBlockEnd
  0
BLOCK
  5
11D
330
4C
100
AcDbEntity
  8
0
100
AcDbBlockBegin
  2
_S_26
 70
     0
 10
0.0
 20
0.0
 30
0.0
  3
_S_26
  1

  0
LINE
  5
11E
330
4C
100
AcDbEntity
  8
QUOTE_QUOTE
  6
Continuous
 62
   254
100
AcDbLine
 10
99.35020000000001
 20
157.589
 30
0.0
 11
99.35020000000001
 21
143.789
 31
0.0
  0
TEXT
  5
11F
330
4C
100
AcDbEntity
  8
QUOTE_QUOTE
  6
Continuous
 62
   254
100
AcDbText
 10
98.6002
 20
148.064
 30
0.0
 40
3.0
  1
13,8
 50
90.0
 11
95.60019999999999
 21
148.064
 31
0.0
100
AcDbText
 73
     3
  0
ENDBLK
  5
120
330
4C
100
AcDbEntity
  8
0
100
AcDbBlockEnd
  0
BLOCK
  5
121
330
4D
100
AcDbEntity
  8
0
100
AcDbBlockBegin
  2
_S_27
 70
     0
 10
0.0
 20
0.0
 30
0.0
  3
_S_27
  1

  0
INSERT
  5
122
330
4D
100
AcDbEntity
  8
0
100
AcDbBlockReference
  2
_S_28
 10
0.0
 20
0.0
 30
0.0
  0
ENDBLK
  5
123
330
4D
100
AcDbEntity
  8
0
100
AcDbBlockEnd
  0
BLOCK
  5
124
330
4E
100
AcDbEntity
  8
0
100
AcDbBlockBegin
  2
_S_28
 70
     0
 10
0.0
 20
0.0
 30
0.0
  3
_S_28
  1

  0
LINE
  5
125
330
4E
100
AcDbEntity
  8
QUOTE_QUOTE
  6
Continuous
 62
   254
100
AcDbLine
 10
91.1076
 20
128.189
 30
0.0
 11
99.23770000000001
 21
128.189
 31
0.0
  0
LINE
  5
126
330
4E
100
AcDbEntity
  8
QUOTE_QUOTE
  6
Continuous
 62
   254
100
AcDbLine
 10
91.0326
 20
131.389
 30
0.0
 11
99.23770000000001
 21
131.389
 31
0.0
  0
LINE
  5
127
330
4E
100
AcDbEntity
  8
QUOTE_QUOTE
  6
Continuous
 62
   254
100
AcDbLine
 10
97.7377
 20
122.189
 30
0.0
 11
97.7377
 21
139.358
 31
0.0
  0
TEXT
  5
128
330
4E
100
AcDbEntity
  8
QUOTE_QUOTE
  6
Continuous
 62
   254
100
AcDbText
 10
96.98770000000001
 20
134.353
 30
0.0
 40
3.0
  1
3,2
 50
90.0
 11
93.9877
 21
134.353
 31
0.0
100
AcDbText
 73
     3
  0
ENDBLK
  5
129
330
4E
100
AcDbEntity
  8
0
100
AcDbBlockEnd
  0
BLOCK
  5
12A
330
4F
100
AcDbEntity
  8
0
100
AcDbBlockBegin
  2
_S_29
 70
     0
 10
0.0
 20
0.0
 30
0.0
  3
_S_29
  1

  0
LINE
  5
12B
330
4F
100
AcDbEntity
  8
QUOTE_QUOTE
  6
Continuous
 62
   254
100
AcDbLine
 10
92.5326
 20
171.589
 30
0.0
 11
92.5326
 21
179.83
 31
0.0
  0
LINE
  5
12C
330
4F
100
AcDbEntity
  8
QUOTE_QUOTE
  6
Continuous
 62
   254
100
AcDbLine
 10
100.833
 20
171.589
 30
0.0
 11
100.833
 21
179.83
 31
0.0
  0
LINE
  5
12D
330
4F
100
AcDbEntity
  8
QUOTE_QUOTE
  6
Continuous
 62
   254
100
AcDbLine
 10
86.53260000000001
 20
178.33
 30
0.0
 11
106.833
 21
178.33
 31
0.0
  0
TEXT
  5
12E
330
4F
100
AcDbEntity
  8
QUOTE_QUOTE
  6
Continuous
 62
   254
100
AcDbText
 10
94.67119999999999
 20
179.08
 30
0.0
 40
3.0
  1
8,3
 11
94.67119999999999
 21
182.08
 31
0.0
100
AcDbText
 73
     3
  0
ENDBLK
  5
12F
330
4F
100
AcDbEntity
  8
0
100
AcDbBlockEnd
  0
BLOCK
  5
130
330
50
100
AcDbEntity
  8
0
100
AcDbBlockBegin
  2
_S_3
 70
     0
 10
0.0
 20
0.0
 30
0.0
  3
_S_3
  1

  0
INSERT
  5
131
330
50
100
AcDbEntity
  8
0
100
AcDbBlockReference
  2
_S_4
 10
0.0
 20
0.0
 30
0.0
  0
ENDBLK
  5
132
330
50
100
AcDbEntity
  8
0
100
AcDbBlockEnd
  0
BLOCK
  5
133
330
51
100
AcDbEntity
  8
0
100
AcDbBlockBegin
  2
_S_30
 70
     0
 10
0.0
 20
0.0
 30
0.0
  3
_S_30
  1

  0
LINE
  5
134
330
51
100
AcDbEntity
  8
QUOTE_QUOTE
  6
Continuous
 62
   254
100
AcDbLine
 10
0.0
 20
0.0
 30
0.0
 11
-1.0
 21
-0.1665
 31
0.0
  0
LINE
  5
135
330
51
100
AcDbEntity
  8
QUOTE_QUOTE
  6
Continuous
 62
   254
100
AcDbLine
 10
-1.0
 20
-0.1665
 30
0.0
 11
0.0
 21
0.0
 31
0.0
  0
LINE
  5
136
330
51
100
AcDbEntity
  8
QUOTE_QUOTE
  6
Continuous
 62
   254
100
AcDbLine
 10
0.0
 20
0.0
 30
0.0
 11
-1.0
 21
0.1665
 31
0.0
  0
LINE
  5
137
330
51
100
AcDbEntity
  8
QUOTE_QUOTE
  6
Continuous
 62
   254
100
AcDbLine
 10
-1.0
 20
0.1665
 30
0.0
 11
0.0
 21
0.0
 31
0.0
  0
INSERT
  5
138
330
51
100
AcDbEntity
  8
0
100
AcDbBlockReference
  2
_X1
 10
0.0
 20
0.0
 30
0.0
  0
LINE
  5
139
330
51
100
AcDbEntity
  8
QUOTE_QUOTE
  6
Continuous
 62
   254
100
AcDbLine
 10
0.0
 20
0.0
 30
0.0
 11
-1.0
 21
0.0
 31
0.0
  0
ENDBLK
  5
13A
330
51
100
AcDbEntity
  8
0
100
AcDbBlockEnd
  0
BLOCK
  5
13B
330
52
100
AcDbEntity
  8
0
100
AcDbBlockBegin
  2
_S_31
 70
     0
 10
0.0
 20
0.0
 30
0.0
  3
_S_31
  1

  0
LINE
  5
13C
330
52
100
AcDbEntity
  8
AM_8
  6
Continuous
 62
     4
100
AcDbLine
 10
239.3709769846391
 20
19.15417721404488
 30
0.0
 11
240.8709769846391
 21
16.15417721404488
 31
0.0
  0
LINE
  5
13D
330
52
100
AcDbEntity
  8
AM_8
  6
Continuous
 62
     4
100
AcDbLine
 10
240.8709769846391
 20
16.15417721404488
 30
0.0
 11
243.8709769846391
 21
22.15417721404489
 31
0.0
  0
CIRCLE
  5
13E
330
52
100
AcDbEntity
  8
AM_8
  6
Continuous
 62
     4
100
AcDbCircle
 10
240.8709769846391
 20
18.28815181026048
 30
0.0
 40
0.8660254037843873
  0
ENDBLK
  5
13F
330
52
100
AcDbEntity
  8
0
100
AcDbBlockEnd
  0
BLOCK
  5
140
330
53
100
AcDbEntity
  8
0
100
AcDbBlockBegin
  2
_S_32
 70
     0
 10
0.0
 20
0.0
 30
0.0
  3
_S_32
  1

  0
LINE
  5
141
330
53
100
AcDbEntity
  8
AM_8
  6
Continuous
 62
     4
100
AcDbLine
 10
258.3688751367027
 20
19.09975055406582
 30
0.0
 11
259.8688751367027
 21
16.09975055406582
 31
0.0
  0
LINE
  5
142
330
53
100
AcDbEntity
  8
AM_8
  6
Continuous
 62
     4
100
AcDbLine
 10
259.8688751367027
 20
16.09975055406582
 30
0.0
 11
261.3688751367027
 21
19.09975055406582
 31
0.0
  0
LINE
  5
143
330
53
100
AcDbEntity
  8
AM_8
  6
Continuous
 62
     4
100
AcDbLine
 10
261.3688751367027
 20
19.09975055406582
 30
0.0
 11
258.3688751367027
 21
19.09975055406582
 31
0.0
  0
ENDBLK
  5
144
330
53
100
AcDbEntity
  8
0
100
AcDbBlockEnd
  0
BLOCK
  5
145
330
54
100
AcDbEntity
  8
0
100
AcDbBlockBegin
  2
_S_33
 70
     0
 10
0.0
 20
0.0
 30
0.0
  3
_S_33
  1

  0
LINE
  5
146
330
54
100
AcDbEntity
  8
AM_8
  6
Continuous
 62
     4
100
AcDbLine
 10
272.7565502388416
 20
19.09975055406582
 30
0.0
 11
274.2565502388416
 21
16.09975055406582
 31
0.0
  0
LINE
  5
147
330
54
100
AcDbEntity
  8
AM_8
  6
Continuous
 62
     4
100
AcDbLine
 10
274.2565502388416
 20
16.09975055406582
 30
0.0
 11
277.2565502388416
 21
22.09975055406582
 31
0.0
  0
TEXT
  5
148
330
54
100
AcDbEntity
  8
AM_8
  6
Continuous
 62
     4
100
AcDbText
 10
272.706317613091
 20
19.59975055406582
 30
0.0
 40
2.0
  1
6,3
 11
272.706317613091
 21
21.59975055406582
 31
0.0
100
AcDbText
 73
     3
  0
ENDBLK
  5
149
330
54
100
AcDbEntity
  8
0
100
AcDbBlockEnd
  0
BLOCK
  5
14A
330
55
100
AcDbEntity
  8
0
100
AcDbBlockBegin
  2
_S_34
 70
     0
 10
0.0
 20
0.0
 30
0.0
  3
_S_34
  1

  0
LINE
  5
14B
330
55
100
AcDbEntity
  8
AM_8
  6
Continuous
 62
     4
100
AcDbLine
 10
325.3040245148254
 20
19.16901056422762
 30
0.0
 11
326.8040245148254
 21
16.16901056422762
 31
0.0
  0
LINE
  5
14C
330
55
100
AcDbEntity
  8
AM_8
  6
Continuous
 62
     4
100
AcDbLine
 10
326.8040245148254
 20
16.16901056422762
 30
0.0
 11
328.3040245148253
 21
19.16901056422762
 31
0.0
  0
LINE
  5
14D
330
55
100
AcDbEntity
  8
AM_8
  6
Continuous
 62
     4
100
AcDbLine
 10
328.3040245148253
 20
19.16901056422762
 30
0.0
 11
325.3040245148254
 21
19.16901056422762
 31
0.0
  0
LINE
  5
14E
330
55
100
AcDbEntity
  8
AM_8
  6
Continuous
 62
     4
100
AcDbLine
 10
325.3040245148254
 20
19.16901056422762
 30
0.0
 11
323.8040245148253
 21
16.16901056422762
 31
0.0
  0
LINE
  5
14F
330
55
100
AcDbEntity
  8
AM_8
  6
Continuous
 62
     4
100
AcDbLine
 10
323.8040245148253
 20
16.16901056422762
 30
0.0
 11
322.3040245148254
 21
19.16901056422762
 31
0.0
  0
LINE
  5
150
330
55
100
AcDbEntity
  8
AM_8
  6
Continuous
 62
     4
100
AcDbLine
 10
322.3040245148254
 20
19.16901056422762
 30
0.0
 11
325.3040245148254
 21
19.16901056422762
 31
0.0
  0
LINE
  5
151
330
55
100
AcDbEntity
  8
AM_8
  6
Continuous
 62
     4
100
AcDbLine
 10
322.3040245148254
 20
19.16901056422762
 30
0.0
 11
320.8040245148254
 21
16.16901056422762
 31
0.0
  0
LINE
  5
152
330
55
100
AcDbEntity
  8
AM_8
  6
Continuous
 62
     4
100
AcDbLine
 10
320.8040245148254
 20
16.16901056422762
 30
0.0
 11
319.3040245148254
 21
19.16901056422762
 31
0.0
  0
LINE
  5
153
330
55
100
AcDbEntity
  8
AM_8
  6
Continuous
 62
     4
100
AcDbLine
 10
319.3040245148254
 20
19.16901056422762
 30
0.0
 11
322.3040245148254
 21
19.16901056422762
 31
0.0
  0
ENDBLK
  5
154
330
55
100
AcDbEntity
  8
0
100
AcDbBlockEnd
  0
BLOCK
  5
155
330
56
100
AcDbEntity
  8
0
100
AcDbBlockBegin
  2
_S_35
 70
     0
 10
0.0
 20
0.0
 30
0.0
  3
_S_35
  1

  0
LINE
  5
156
330
56
100
AcDbEntity
  8
AM_8
  6
Continuous
 62
     4
100
AcDbLine
 10
333.1668267492568
 20
19.19819541103695
 30
0.0
 11
334.6668267492568
 21
16.19819541103695
 31
0.0
  0
LINE
  5
157
330
56
100
AcDbEntity
  8
AM_8
  6
Continuous
 62
     4
100
AcDbLine
 10
334.6668267492568
 20
16.19819541103695
 30
0.0
 11
337.6668267492568
 21
22.19819541103695
 31
0.0
  0
TEXT
  5
158
330
56
100
AcDbEntity
  8
AM_8
  6
Continuous
 62
     4
100
AcDbText
 10
333.0256850325971
 20
19.69819541103695
 30
0.0
 40
2.0
  1
0,8
 11
333.0256850325971
 21
21.69819541103695
 31
0.0
100
AcDbText
 73
     3
  0
ENDBLK
  5
159
330
56
100
AcDbEntity
  8
0
100
AcDbBlockEnd
  0
BLOCK
  5
15A
330
57
100
AcDbEntity
  8
0
100
AcDbBlockBegin
  2
_S_36
 70
     0
 10
0.0
 20
0.0
 30
0.0
  3
_S_36
  1

  0
LINE
  5
15B
330
57
100
AcDbEntity
  8
AM_8
  6
Continuous
 62
     4
100
AcDbLine
 10
291.8140602567192
 20
19.13960192084521
 30
0.0
 11
293.3140602567192
 21
16.13960192084521
 31
0.0
  0
LINE
  5
15C
330
57
100
AcDbEntity
  8
AM_8
  6
Continuous
 62
     4
100
AcDbLine
 10
293.3140602567192
 20
16.13960192084521
 30
0.0
 11
294.8140602567193
 21
19.13960192084521
 31
0.0
  0
LINE
  5
15D
330
57
100
AcDbEntity
  8
AM_8
  6
Continuous
 62
     4
100
AcDbLine
 10
294.8140602567193
 20
19.13960192084521
 30
0.0
 11
291.8140602567192
 21
19.13960192084521
 31
0.0
  0
LINE
  5
15E
330
57
100
AcDbEntity
  8
AM_8
  6
Continuous
 62
     4
100
AcDbLine
 10
291.8140602567192
 20
19.13960192084521
 30
0.0
 11
290.3140602567193
 21
16.13960192084521
 31
0.0
  0
LINE
  5
15F
330
57
100
AcDbEntity
  8
AM_8
  6
Continuous
 62
     4
100
AcDbLine
 10
290.3140602567193
 20
16.13960192084521
 30
0.0
 11
288.8140602567192
 21
19.13960192084521
 31
0.0
  0
LINE
  5
160
330
57
100
AcDbEntity
  8
AM_8
  6
Continuous
 62
     4
100
AcDbLine
 10
288.8140602567192
 20
19.13960192084521
 30
0.0
 11
291.8140602567192
 21
19.13960192084521
 31
0.0
  0
ENDBLK
  5
161
330
57
100
AcDbEntity
  8
0
100
AcDbBlockEnd
  0
BLOCK
  5
162
330
58
100
AcDbEntity
  8
0
100
AcDbBlockBegin
  2
_S_37
 70
     0
 10
0.0
 20
0.0
 30
0.0
  3
_S_37
  1

  0
LINE
  5
163
330
58
100
AcDbEntity
  8
AM_8
  6
Continuous
 62
     4
100
AcDbLine
 10
302.3759119190779
 20
19.13960192084521
 30
0.0
 11
303.875911919078
 21
16.13960192084521
 31
0.0
  0
LINE
  5
164
330
58
100
AcDbEntity
  8
AM_8
  6
Continuous
 62
     4
100
AcDbLine
 10
303.875911919078
 20
16.13960192084521
 30
0.0
 11
306.875911919078
 21
22.13960192084521
 31
0.0
  0
TEXT
  5
165
330
58
100
AcDbEntity
  8
AM_8
  6
Continuous
 62
     4
100
AcDbText
 10
302.4393156569638
 20
19.6396019208452
 30
0.0
 40
2.0
  1
1,6
 11
302.4393156569638
 21
21.63960192084521
 31
0.0
100
AcDbText
 73
     3
  0
ENDBLK
  5
166
330
58
100
AcDbEntity
  8
0
100
AcDbBlockEnd
  0
BLOCK
  5
167
330
59
100
AcDbEntity
  8
0
100
AcDbBlockBegin
  2
_S_4
 70
     0
 10
0.0
 20
0.0
 30
0.0
  3
_S_4
  1

  0
LINE
  5
168
330
59
100
AcDbEntity
  8
QUOTE_QUOTE
  6
Continuous
 62
   254
100
AcDbLine
 10
87.43259999999999
 20
170.689
 30
0.0
 11
87.43259999999999
 21
179.83
 31
0.0
  0
LINE
  5
169
330
59
100
AcDbEntity
  8
QUOTE_QUOTE
  6
Continuous
 62
   254
100
AcDbLine
 10
92.5326
 20
171.589
 30
0.0
 11
92.5326
 21
179.83
 31
0.0
  0
LINE
  5
16A
330
59
100
AcDbEntity
  8
QUOTE_QUOTE
  6
Continuous
 62
   254
100
AcDbLine
 10
81.43259999999999
 20
178.33
 30
0.0
 11
98.5326
 21
178.33
 31
0.0
  0
TEXT
  5
16B
330
59
100
AcDbEntity
  8
QUOTE_QUOTE
  6
Continuous
 62
   254
100
AcDbText
 10
88.24389999999999
 20
179.08
 30
0.0
 40
3.0
  1
5,1
 11
88.24389999999999
 21
182.08
 31
0.0
100
AcDbText
 73
     3
  0
ENDBLK
  5
16C
330
59
100
AcDbEntity
  8
0
100
AcDbBlockEnd
  0
BLOCK
  5
16D
330
5A
100
AcDbEntity
  8
0
100
AcDbBlockBegin
  2
_S_5
 70
     0
 10
0.0
 20
0.0
 30
0.0
  3
_S_5
  1

  0
LINE
  5
16E
330
5A
100
AcDbEntity
  8
QUOTE_QUOTE
  6
Continuous
 62
   254
100
AcDbLine
 10
92.5326
 20
171.589
 30
0.0
 11
92.5326
 21
179.83
 31
0.0
  0
LINE
  5
16F
330
5A
100
AcDbEntity
  8
QUOTE_QUOTE
  6
Continuous
 62
   254
100
AcDbLine
 10
100.833
 20
171.589
 30
0.0
 11
100.833
 21
179.83
 31
0.0
  0
LINE
  5
170
330
5A
100
AcDbEntity
  8
QUOTE_QUOTE
  6
Continuous
 62
   254
100
AcDbLine
 10
89.5326
 20
178.33
 30
0.0
 11
86.53260000000001
 21
178.33
 31
0.0
  0
LINE
  5
171
330
5A
100
AcDbEntity
  8
QUOTE_QUOTE
  6
Continuous
 62
   254
100
AcDbLine
 10
103.833
 20
178.33
 30
0.0
 11
106.833
 21
178.33
 31
0.0
  0
LINE
  5
172
330
5A
100
AcDbEntity
  8
QUOTE_QUOTE
  6
Continuous
 62
   254
100
AcDbLine
 10
92.5326
 20
178.33
 30
0.0
 11
100.833
 21
178.33
 31
0.0
  0
INSERT
  5
173
330
5A
100
AcDbEntity
  8
0
100
AcDbBlockReference
  2
_S_6
 10
92.5326
 20
178.33
 30
0.0
 41
3.0
 42
3.0
  0
INSERT
  5
174
330
5A
100
AcDbEntity
  8
0
100
AcDbBlockReference
  2
_S_6
 10
100.833
 20
178.33
 30
0.0
 41
3.0
 42
3.0
 50
180.0
  0
TEXT
  5
175
330
5A
100
AcDbEntity
  8
QUOTE_QUOTE
  6
Continuous
 62
   254
100
AcDbText
 10
83.1826
 20
180.116
 30
0.0
 40
3.0
  1
A1;A1;8,3
100
AcDbText
  0
POINT
  5
176
330
5A
100
AcDbEntity
  8
AM_10
  6
Continuous
 62
     7
100
AcDbPoint
 10
92.5326
 20
171.589
 30
0.0
  0
POINT
  5
177
330
5A
100
AcDbEntity
  8
AM_10
  6
Continuous
 62
     7
100
AcDbPoint
 10
100.833
 20
171.589
 30
0.0
  0
POINT
  5
178
330
5A
100
AcDbEntity
  8
AM_10
  6
Continuous
 62
     7
100
AcDbPoint
 10
100.833
 20
178.33
 30
0.0
  0
ENDBLK
  5
179
330
5A
100
AcDbEntity
  8
0
100
AcDbBlockEnd
  0
BLOCK
  5
17A
330
5B
100
AcDbEntity
  8
0
100
AcDbBlockBegin
  2
_S_6
 70
     0
 10
0.0
 20
0.0
 30
0.0
  3
_S_6
  1

  0
LINE
  5
17B
330
5B
100
AcDbEntity
  8
QUOTE_QUOTE
  6
Continuous
 62
   254
100
AcDbLine
 10
0.0
 20
0.0
 30
0.0
 11
-1.0
 21
0.0
 31
0.0
  0
ENDBLK
  5
17C
330
5B
100
AcDbEntity
  8
0
100
AcDbBlockEnd
  0
BLOCK
  5
17D
330
5C
100
AcDbEntity
  8
0
100
AcDbBlockBegin
  2
_S_7
 70
     0
 10
0.0
 20
0.0
 30
0.0
  3
_S_7
  1

  0
INSERT
  5
17E
330
5C
100
AcDbEntity
  8
0
100
AcDbBlockReference
  2
_S_8
 10
0.0
 20
0.0
 30
0.0
  0
ENDBLK
  5
17F
330
5C
100
AcDbEntity
  8
0
100
AcDbBlockEnd
  0
BLOCK
  5
180
330
5D
100
AcDbEntity
  8
0
100
AcDbBlockBegin
  2
_S_8
 70
     0
 10
0.0
 20
0.0
 30
0.0
  3
_S_8
  1

  0
LINE
  5
181
330
5D
100
AcDbEntity
  8
QUOTE_QUOTE
  6
Continuous
 62
   254
100
AcDbLine
 10
100.833
 20
171.589
 30
0.0
 11
100.833
 21
179.83
 31
0.0
  0
LINE
  5
182
330
5D
100
AcDbEntity
  8
QUOTE_QUOTE
  6
Continuous
 62
   254
100
AcDbLine
 10
105.933
 20
170.689
 30
0.0
 11
105.933
 21
179.83
 31
0.0
  0
LINE
  5
183
330
5D
100
AcDbEntity
  8
QUOTE_QUOTE
  6
Continuous
 62
   254
100
AcDbLine
 10
94.83259999999999
 20
178.33
 30
0.0
 11
111.933
 21
178.33
 31
0.0
  0
TEXT
  5
184
330
5D
100
AcDbEntity
  8
QUOTE_QUOTE
  6
Continuous
 62
   254
100
AcDbText
 10
101.644
 20
179.08
 30
0.0
 40
3.0
  1
5,1
 11
101.644
 21
182.08
 31
0.0
100
AcDbText
 73
     3
  0
ENDBLK
  5
185
330
5D
100
AcDbEntity
  8
0
100
AcDbBlockEnd
  0
BLOCK
  5
186
330
5E
100
AcDbEntity
  8
0
100
AcDbBlockBegin
  2
_S_9
 70
     0
 10
0.0
 20
0.0
 30
0.0
  3
_S_9
  1

  0
INSERT
  5
187
330
5E
100
AcDbEntity
  8
0
100
AcDbBlockReference
  2
_S_10
 10
0.0
 20
0.0
 30
0.0
  0
ENDBLK
  5
188
330
5E
100
AcDbEntity
  8
0
100
AcDbBlockEnd
  0
BLOCK
  5
189
330
5F
100
AcDbEntity
  8
0
100
AcDbBlockBegin
  2
_X1
 70
     0
 10
0.0
 20
0.0
 30
0.0
  3
_X1
  1

  0
ENDBLK
  5
18A
330
5F
100
AcDbEntity
  8
0
100
AcDbBlockEnd
  0
BLOCK
  5
18B
330
60
100
AcDbEntity
  8
0
100
AcDbBlockBegin
  2
DMBLK374
 70
     0
 10
0.0
 20
0.0
 30
0.0
  3
DMBLK374
  1

  0
INSERT
  5
18C
330
60
100
AcDbEntity
  8
0
100
AcDbBlockReference
  2
SE0
 10
0.0
 20
0.0
 30
0.0
  0
ENDBLK
  5
18D
330
60
100
AcDbEntity
  8
0
100
AcDbBlockEnd
  0
BLOCK
  5
18E
330
61
100
AcDbEntity
  8
0
100
AcDbBlockBegin
  2
DMBLK375
 70
     0
 10
0.0
 20
0.0
 30
0.0
  3
DMBLK375
  1

  0
INSERT
  5
18F
330
61
100
AcDbEntity
  8
0
100
AcDbBlockReference
  2
SE1
 10
0.0
 20
0.0
 30
0.0
  0
ENDBLK
  5
190
330
61
100
AcDbEntity
  8
0
100
AcDbBlockEnd
  0
BLOCK
  5
191
330
62
100
AcDbEntity
  8
0
100
AcDbBlockBegin
  2
DMBLK376
 70
     0
 10
0.0
 20
0.0
 30
0.0
  3
DMBLK376
  1

  0
LINE
  5
192
330
62
100
AcDbEntity
  8
AM_2
  6
Continuous
 62
   254
100
AcDbLine
 10
92.53256058075892
 20
171.5888346551672
 30
0.0
 11
92.53256058075892
 21
179.830136277409
 31
0.0
  0
LINE
  5
193
330
62
100
AcDbEntity
  8
AM_2
  6
Continuous
 62
   254
100
AcDbLine
 10
100.8325605807589
 20
171.5888346551672
 30
0.0
 11
100.8325605807589
 21
179.830136277409
 31
0.0
  0
LINE
  5
194
330
62
100
AcDbEntity
  8
AM_2
  6
Continuous
 62
   254
100
AcDbLine
 10
89.53256058075892
 20
178.3301362774089
 30
0.0
 11
86.53256058075893
 21
178.3301362774089
 31
0.0
  0
LINE
  5
195
330
62
100
AcDbEntity
  8
AM_2
  6
Continuous
 62
   254
100
AcDbLine
 10
103.8325605807589
 20
178.3301362774089
 30
0.0
 11
106.8325605807589
 21
178.3301362774089
 31
0.0
  0
LINE
  5
196
330
62
100
AcDbEntity
  8
AM_2
  6
Continuous
 62
   254
100
AcDbLine
 10
92.53256058075892
 20
178.3301362774089
 30
0.0
 11
100.8325605807589
 21
178.3301362774089
 31
0.0
  0
INSERT
  5
197
330
62
100
AcDbEntity
  8
0
100
AcDbBlockReference
  2
_SE_BLANK
 10
92.53256058075892
 20
178.3301362774089
 30
0.0
 41
3.0
 42
3.0
  0
INSERT
  5
198
330
62
100
AcDbEntity
  8
0
100
AcDbBlockReference
  2
_SE_BLANK
 10
100.8325605807589
 20
178.3301362774089
 30
0.0
 41
3.0
 42
3.0
 50
180.0
  0
TEXT
  5
199
330
62
100
AcDbEntity
  8
AM_2
  6
Continuous
 62
   254
100
AcDbText
 10
83.18256058075892
 20
180.1158505631232
 30
0.0
 40
3.0
  1
A1;A1;8,3
100
AcDbText
  0
POINT
  5
19A
330
62
100
AcDbEntity
  8
LINEESCR_LINEESCR
  6
Continuous
 62
     7
100
AcDbPoint
 10
92.53256058075892
 20
171.5888346551672
 30
0.0
  0
POINT
  5
19B
330
62
100
AcDbEntity
  8
LINEESCR_LINEESCR
  6
Continuous
 62
     7
100
AcDbPoint
 10
100.8325605807589
 20
171.5888346551672
 30
0.0
  0
POINT
  5
19C
330
62
100
AcDbEntity
  8
LINEESCR_LINEESCR
  6
Continuous
 62
     7
100
AcDbPoint
 10
100.8325605807589
 20
178.3301362774089
 30
0.0
  0
ENDBLK
  5
19D
330
62
100
AcDbEntity
  8
0
100
AcDbBlockEnd
  0
BLOCK
  5
19E
330
63
100
AcDbEntity
  8
0
100
AcDbBlockBegin
  2
DMBLK377
 70
     0
 10
0.0
 20
0.0
 30
0.0
  3
DMBLK377
  1

  0
INSERT
  5
19F
330
63
100
AcDbEntity
  8
0
100
AcDbBlockReference
  2
SE3
 10
0.0
 20
0.0
 30
0.0
  0
ENDBLK
  5
1A0
330
63
100
AcDbEntity
  8
0
100
AcDbBlockEnd
  0
BLOCK
  5
1A1
330
64
100
AcDbEntity
  8
0
100
AcDbBlockBegin
  2
DMBLK378
 70
     0
 10
0.0
 20
0.0
 30
0.0
  3
DMBLK378
  1

  0
INSERT
  5
1A2
330
64
100
AcDbEntity
  8
0
100
AcDbBlockReference
  2
SE4
 10
0.0
 20
0.0
 30
0.0
  0
ENDBLK
  5
1A3
330
64
100
AcDbEntity
  8
0
100
AcDbBlockEnd
  0
BLOCK
  5
1A4
330
65
100
AcDbEntity
  8
0
100
AcDbBlockBegin
  2
DMBLK379
 70
     0
 10
0.0
 20
0.0
 30
0.0
  3
DMBLK379
  1

  0
INSERT
  5
1A5
330
65
100
AcDbEntity
  8
0
100
AcDbBlockReference
  2
SE5
 10
0.0
 20
0.0
 30
0.0
  0
ENDBLK
  5
1A6
330
65
100
AcDbEntity
  8
0
100
AcDbBlockEnd
  0
BLOCK
  5
1A7
330
66
100
AcDbEntity
  8
0
100
AcDbBlockBegin
  2
DMBLK380
 70
     0
 10
0.0
 20
0.0
 30
0.0
  3
DMBLK380
  1

  0
INSERT
  5
1A8
330
66
100
AcDbEntity
  8
0
100
AcDbBlockReference
  2
SE6
 10
0.0
 20
0.0
 30
0.0
  0
ENDBLK
  5
1A9
330
66
100
AcDbEntity
  8
0
100
AcDbBlockEnd
  0
BLOCK
  5
1AA
330
67
100
AcDbEntity
  8
0
100
AcDbBlockBegin
  2
DMBLK381
 70
     0
 10
0.0
 20
0.0
 30
0.0
  3
DMBLK381
  1

  0
INSERT
  5
1AB
330
67
100
AcDbEntity
  8
0
100
AcDbBlockReference
  2
SE7
 10
0.0
 20
0.0
 30
0.0
  0
ENDBLK
  5
1AC
330
67
100
AcDbEntity
  8
0
100
AcDbBlockEnd
  0
BLOCK
  5
1AD
330
68
100
AcDbEntity
  8
0
100
AcDbBlockBegin
  2
DMBLK382
 70
     0
 10
0.0
 20
0.0
 30
0.0
  3
DMBLK382
  1

  0
INSERT
  5
1AE
330
68
100
AcDbEntity
  8
0
100
AcDbBlockReference
  2
SE8
 10
0.0
 20
0.0
 30
0.0
  0
ENDBLK
  5
1AF
330
68
100
AcDbEntity
  8
0
100
AcDbBlockEnd
  0
BLOCK
  5
1B0
330
69
100
AcDbEntity
  8
0
100
AcDbBlockBegin
  2
DMBLK383
 70
     0
 10
0.0
 20
0.0
 30
0.0
  3
DMBLK383
  1

  0
INSERT
  5
1B1
330
69
100
AcDbEntity
  8
0
100
AcDbBlockReference
  2
SE9
 10
0.0
 20
0.0
 30
0.0
  0
ENDBLK
  5
1B2
330
69
100
AcDbEntity
  8
0
100
AcDbBlockEnd
  0
BLOCK
  5
1B3
330
6A
100
AcDbEntity
  8
0
100
AcDbBlockBegin
  2
DMBLK384
 70
     0
 10
0.0
 20
0.0
 30
0.0
  3
DMBLK384
  1

  0
INSERT
  5
1B4
330
6A
100
AcDbEntity
  8
0
100
AcDbBlockReference
  2
SE10
 10
0.0
 20
0.0
 30
0.0
  0
ENDBLK
  5
1B5
330
6A
100
AcDbEntity
  8
0
100
AcDbBlockEnd
  0
BLOCK
  5
1B6
330
6B
100
AcDbEntity
  8
0
100
AcDbBlockBegin
  2
DMBLK385
 70
     0
 10
0.0
 20
0.0
 30
0.0
  3
DMBLK385
  1

  0
INSERT
  5
1B7
330
6B
100
AcDbEntity
  8
0
100
AcDbBlockReference
  2
SE11
 10
0.0
 20
0.0
 30
0.0
  0
ENDBLK
  5
1B8
330
6B
100
AcDbEntity
  8
0
100
AcDbBlockEnd
  0
BLOCK
  5
1B9
330
6C
100
AcDbEntity
  8
0
100
AcDbBlockBegin
  2
DMBLK386
 70
     0
 10
0.0
 20
0.0
 30
0.0
  3
DMBLK386
  1

  0
INSERT
  5
1BA
330
6C
100
AcDbEntity
  8
0
100
AcDbBlockReference
  2
SE12
 10
0.0
 20
0.0
 30
0.0
  0
ENDBLK
  5
1BB
330
6C
100
AcDbEntity
  8
0
100
AcDbBlockEnd
  0
BLOCK
  5
1BC
330
6D
100
AcDbEntity
  8
0
100
AcDbBlockBegin
  2
DMBLK387
 70
     0
 10
0.0
 20
0.0
 30
0.0
  3
DMBLK387
  1

  0
INSERT
  5
1BD
330
6D
100
AcDbEntity
  8
0
100
AcDbBlockReference
  2
SE13
 10
0.0
 20
0.0
 30
0.0
  0
ENDBLK
  5
1BE
330
6D
100
AcDbEntity
  8
0
100
AcDbBlockEnd
  0
BLOCK
  5
1BF
330
6E
100
AcDbEntity
  8
0
100
AcDbBlockBegin
  2
SE0
 70
     0
 10
0.0
 20
0.0
 30
0.0
  3
SE0
  1

  0
LINE
  5
1C0
330
6E
100
AcDbEntity
  8
AM_2
  6
Continuous
 62
   254
100
AcDbLine
 10
87.43256058075891
 20
170.6888346551672
 30
0.0
 11
87.43256058075891
 21
189.1332579861149
 31
0.0
  0
LINE
  5
1C1
330
6E
100
AcDbEntity
  8
AM_2
  6
Continuous
 62
   254
100
AcDbLine
 10
105.9325605807589
 20
170.6888346551672
 30
0.0
 11
105.9325605807589
 21
189.1332579861149
 31
0.0
  0
LINE
  5
1C2
330
6E
100
AcDbEntity
  8
AM_2
  6
Continuous
 62
   254
100
AcDbLine
 10
87.43256058075891
 20
187.6332579730764
 30
0.0
 11
105.9325608191775
 21
187.6332579730764
 31
0.0
  0
TEXT
  5
1C3
330
6E
100
AcDbEntity
  8
AM_2
  6
Continuous
 62
   254
100
AcDbText
 10
93.9893788817864
 20
188.3832579730764
 30
0.0
 40
3.0
  1
18,5
 11
93.9893788817864
 21
191.3832579730764
 31
0.0
100
AcDbText
 73
     3
  0
ENDBLK
  5
1C4
330
6E
100
AcDbEntity
  8
0
100
AcDbBlockEnd
  0
BLOCK
  5
1C5
330
6F
100
AcDbEntity
  8
0
100
AcDbBlockBegin
  2
SE1
 70
     0
 10
0.0
 20
0.0
 30
0.0
  3
SE1
  1

  0
LINE
  5
1C6
330
6F
100
AcDbEntity
  8
AM_2
  6
Continuous
 62
   254
100
AcDbLine
 10
87.43256058075891
 20
170.6888346551672
 30
0.0
 11
87.43256058075891
 21
179.8301361585721
 31
0.0
  0
LINE
  5
1C7
330
6F
100
AcDbEntity
  8
AM_2
  6
Continuous
 62
   254
100
AcDbLine
 10
92.53256058075892
 20
171.5888346551672
 30
0.0
 11
92.53256058075892
 21
179.8301361585722
 31
0.0
  0
LINE
  5
1C8
330
6F
100
AcDbEntity
  8
AM_2
  6
Continuous
 62
   254
100
AcDbLine
 10
81.43256052860484
 20
178.3301361455336
 30
0.0
 11
98.53256035128104
 21
178.3301361455336
 31
0.0
  0
TEXT
  5
1C9
330
6F
100
AcDbEntity
  8
AM_2
  6
Continuous
 62
   254
100
AcDbText
 10
88.24392430913722
 20
179.0801361455336
 30
0.0
 40
3.0
  1
5,1
 11
88.24392430913722
 21
182.0801361455336
 31
0.0
100
AcDbText
 73
     3
  0
ENDBLK
  5
1CA
330
6F
100
AcDbEntity
  8
0
100
AcDbBlockEnd
  0
BLOCK
  5
1CB
330
70
100
AcDbEntity
  8
0
100
AcDbBlockBegin
  2
SE10
 70
     0
 10
0.0
 20
0.0
 30
0.0
  3
SE10
  1

  0
LINE
  5
1CC
330
70
100
AcDbEntity
  8
AM_2
  6
Continuous
 62
   254
100
AcDbLine
 10
105.6825605807589
 20
154.8388346551672
 30
0.0
 11
114.4947890313105
 21
154.8388346551672
 31
0.0
  0
LINE
  5
1CD
330
70
100
AcDbEntity
  8
AM_2
  6
Continuous
 62
   254
100
AcDbLine
 10
104.3325605807589
 20
146.5388346551672
 30
0.0
 11
114.4947890313105
 21
146.5388346551672
 31
0.0
  0
LINE
  5
1CE
330
70
100
AcDbEntity
  8
AM_2
  6
Continuous
 62
   254
100
AcDbLine
 10
112.994789018272
 20
160.8388347073212
 30
0.0
 11
112.994789018272
 21
140.5388347326532
 31
0.0
  0
TEXT
  5
1CF
330
70
100
AcDbEntity
  8
AM_2
  6
Continuous
 62
   254
100
AcDbText
 10
112.244789018272
 20
148.6774710836236
 30
0.0
 40
3.0
  1
8,3
 50
90.0
 11
109.244789018272
 21
148.6774710836236
 31
0.0
100
AcDbText
 73
     3
  0
ENDBLK
  5
1D0
330
70
100
AcDbEntity
  8
0
100
AcDbBlockEnd
  0
BLOCK
  5
1D1
330
71
100
AcDbEntity
  8
0
100
AcDbBlockBegin
  2
SE11
 70
     0
 10
0.0
 20
0.0
 30
0.0
  3
SE11
  1

  0
LINE
  5
1D2
330
71
100
AcDbEntity
  8
AM_2
  6
Continuous
 62
   254
100
AcDbLine
 10
104.3325605807589
 20
146.5388346551672
 30
0.0
 11
114.4947890663282
 21
146.5388346551672
 31
0.0
  0
LINE
  5
1D3
330
71
100
AcDbEntity
  8
AM_2
  6
Continuous
 62
   254
100
AcDbLine
 10
102.2575605807588
 20
128.1888346551672
 30
0.0
 11
114.4947890663282
 21
128.1888346551672
 31
0.0
  0
LINE
  5
1D4
330
71
100
AcDbEntity
  8
AM_2
  6
Continuous
 62
   254
100
AcDbLine
 10
112.9947890532897
 20
146.5388346551672
 30
0.0
 11
112.9947890532897
 21
128.1888350932613
 31
0.0
  0
TEXT
  5
1D5
330
71
100
AcDbEntity
  8
AM_2
  6
Continuous
 62
   254
100
AcDbText
 10
112.2447890532897
 20
133.8865621469415
 30
0.0
 40
3.0
  1
18,35
 50
90.0
 11
109.2447890532897
 21
133.8865621469415
 31
0.0
100
AcDbText
 73
     3
  0
ENDBLK
  5
1D6
330
71
100
AcDbEntity
  8
0
100
AcDbBlockEnd
  0
BLOCK
  5
1D7
330
72
100
AcDbEntity
  8
0
100
AcDbBlockBegin
  2
SE12
 70
     0
 10
0.0
 20
0.0
 30
0.0
  3
SE12
  1

  0
LINE
  5
1D8
330
72
100
AcDbEntity
  8
AM_2
  6
Continuous
 62
   254
100
AcDbLine
 10
99.35020962108353
 20
157.5888346551672
 30
0.0
 11
99.35020962108353
 21
143.7888348146096
 31
0.0
  0
TEXT
  5
1D9
330
72
100
AcDbEntity
  8
AM_2
  6
Continuous
 62
   254
100
AcDbText
 10
98.60020962108352
 20
148.0638347348884
 30
0.0
 40
3.0
  1
13,8
 50
90.0
 11
95.60020962108351
 21
148.0638347348884
 31
0.0
100
AcDbText
 73
     3
  0
ENDBLK
  5
1DA
330
72
100
AcDbEntity
  8
0
100
AcDbBlockEnd
  0
BLOCK
  5
1DB
330
73
100
AcDbEntity
  8
0
100
AcDbBlockBegin
  2
SE13
 70
     0
 10
0.0
 20
0.0
 30
0.0
  3
SE13
  1

  0
LINE
  5
1DC
330
73
100
AcDbEntity
  8
AM_2
  6
Continuous
 62
   254
100
AcDbLine
 10
91.10756058075891
 20
128.1888346551672
 30
0.0
 11
99.23766835422682
 21
128.1888346551672
 31
0.0
  0
LINE
  5
1DD
330
73
100
AcDbEntity
  8
AM_2
  6
Continuous
 62
   254
100
AcDbLine
 10
91.0325605807589
 20
131.3888346551672
 30
0.0
 11
99.23766835422682
 21
131.3888346551672
 31
0.0
  0
LINE
  5
1DE
330
73
100
AcDbEntity
  8
AM_2
  6
Continuous
 62
   254
100
AcDbLine
 10
97.73766834118832
 20
122.1888346030131
 30
0.0
 11
97.73766834118832
 21
139.3575716196314
 31
0.0
  0
TEXT
  5
1DF
330
73
100
AcDbEntity
  8
AM_2
  6
Continuous
 62
   254
100
AcDbText
 10
96.9876683411883
 20
134.3530263325885
 30
0.0
 40
3.0
  1
3,2
 50
90.0
 11
93.98766834118829
 21
134.3530263325885
 31
0.0
100
AcDbText
 73
     3
  0
ENDBLK
  5
1E0
330
73
100
AcDbEntity
  8
0
100
AcDbBlockEnd
  0
BLOCK
  5
1E1
330
74
100
AcDbEntity
  8
0
100
AcDbBlockBegin
  2
SE2
 70
     0
 10
0.0
 20
0.0
 30
0.0
  3
SE2
  1

  0
LINE
  5
1E2
330
74
100
AcDbEntity
  8
AM_2
  6
Continuous
 62
   254
100
AcDbLine
 10
92.53256058075892
 20
171.5888346551672
 30
0.0
 11
92.53256058075892
 21
179.8301362904475
 31
0.0
  0
LINE
  5
1E3
330
74
100
AcDbEntity
  8
AM_2
  6
Continuous
 62
   254
100
AcDbLine
 10
100.8325605807589
 20
171.5888346551672
 30
0.0
 11
100.8325605807589
 21
179.8301362904475
 31
0.0
  0
LINE
  5
1E4
330
74
100
AcDbEntity
  8
AM_2
  6
Continuous
 62
   254
100
AcDbLine
 10
86.53256052860486
 20
178.3301362774089
 30
0.0
 11
106.8325605032728
 21
178.3301362774089
 31
0.0
  0
TEXT
  5
1E5
330
74
100
AcDbEntity
  8
AM_2
  6
Continuous
 62
   254
100
AcDbText
 10
94.67119687957524
 20
179.080136277409
 30
0.0
 40
3.0
  1
8,3
 11
94.67119687957524
 21
182.080136277409
 31
0.0
100
AcDbText
 73
     3
  0
ENDBLK
  5
1E6
330
74
100
AcDbEntity
  8
0
100
AcDbBlockEnd
  0
BLOCK
  5
1E7
330
75
100
AcDbEntity
  8
0
100
AcDbBlockBegin
  2
SE3
 70
     0
 10
0.0
 20
0.0
 30
0.0
  3
SE3
  1

  0
LINE
  5
1E8
330
75
100
AcDbEntity
  8
AM_2
  6
Continuous
 62
   254
100
AcDbLine
 10
100.8325605807589
 20
171.5888346551672
 30
0.0
 11
100.8325605807589
 21
179.8301362904474
 31
0.0
  0
LINE
  5
1E9
330
75
100
AcDbEntity
  8
AM_2
  6
Continuous
 62
   254
100
AcDbLine
 10
105.9325605807589
 20
170.6888346551672
 30
0.0
 11
105.9325605807589
 21
179.8301362904474
 31
0.0
  0
LINE
  5
1EA
330
75
100
AcDbEntity
  8
AM_2
  6
Continuous
 62
   254
100
AcDbLine
 10
94.83256052860486
 20
178.3301362774089
 30
0.0
 11
111.932560351281
 21
178.3301362774089
 31
0.0
  0
TEXT
  5
1EB
330
75
100
AcDbEntity
  8
AM_2
  6
Continuous
 62
   254
100
AcDbText
 10
101.6439243091372
 20
179.0801362774089
 30
0.0
 40
3.0
  1
5,1
 11
101.6439243091372
 21
182.0801362774089
 31
0.0
100
AcDbText
 73
     3
  0
ENDBLK
  5
1EC
330
75
100
AcDbEntity
  8
0
100
AcDbBlockEnd
  0
BLOCK
  5
1ED
330
76
100
AcDbEntity
  8
0
100
AcDbBlockBegin
  2
SE4
 70
     0
 10
0.0
 20
0.0
 30
0.0
  3
SE4
  1

  0
LINE
  5
1EE
330
76
100
AcDbEntity
  8
AM_2
  6
Continuous
 62
   254
100
AcDbLine
 10
91.10756058075891
 20
173.1888346551672
 30
0.0
 11
74.28230115042494
 21
173.1888346551672
 31
0.0
  0
LINE
  5
1EF
330
76
100
AcDbEntity
  8
AM_2
  6
Continuous
 62
   254
100
AcDbLine
 10
91.10756058075891
 20
128.1888346551672
 30
0.0
 11
74.28230115042494
 21
128.1888346551672
 31
0.0
  0
LINE
  5
1F0
330
76
100
AcDbEntity
  8
AM_2
  6
Continuous
 62
   254
100
AcDbLine
 10
75.78230116346346
 20
173.1888346551672
 30
0.0
 11
75.78230116346346
 21
128.1888328670278
 31
0.0
  0
TEXT
  5
1F1
330
76
100
AcDbEntity
  8
AM_2
  6
Continuous
 62
   254
100
AcDbText
 10
75.03230116346346
 20
148.9501973974611
 30
0.0
 40
3.0
  1
45
 50
90.0
 11
72.03230116346346
 21
148.9501973974611
 31
0.0
100
AcDbText
 73
     3
  0
ENDBLK
  5
1F2
330
76
100
AcDbEntity
  8
0
100
AcDbBlockEnd
  0
BLOCK
  5
1F3
330
77
100
AcDbEntity
  8
0
100
AcDbBlockBegin
  2
SE5
 70
     0
 10
0.0
 20
0.0
 30
0.0
  3
SE5
  1

  0
LINE
  5
1F4
330
77
100
AcDbEntity
  8
AM_2
  6
Continuous
 62
   254
100
AcDbLine
 10
91.10756058075891
 20
173.1888346551672
 30
0.0
 11
79.74013269708918
 21
173.1888346551672
 31
0.0
  0
LINE
  5
1F5
330
77
100
AcDbEntity
  8
AM_2
  6
Continuous
 62
   254
100
AcDbLine
 10
92.98256058075891
 20
159.4888346551672
 30
0.0
 11
79.74013269708918
 21
159.4888346551672
 31
0.0
  0
LINE
  5
1F6
330
77
100
AcDbEntity
  8
AM_2
  6
Continuous
 62
   254
100
AcDbLine
 10
81.24013271012769
 20
173.1888346551672
 30
0.0
 11
81.24013271012769
 21
159.4888346447364
 31
0.0
  0
TEXT
  5
1F7
330
77
100
AcDbEntity
  8
AM_2
  6
Continuous
 62
   254
100
AcDbText
 10
80.49013271012769
 20
163.7138346499517
 30
0.0
 40
3.0
  1
13,7
 50
90.0
 11
77.4901327101277
 21
163.7138346499517
 31
0.0
100
AcDbText
 73
     3
  0
ENDBLK
  5
1F8
330
77
100
AcDbEntity
  8
0
100
AcDbBlockEnd
  0
BLOCK
  5
1F9
330
78
100
AcDbEntity
  8
0
100
AcDbBlockBegin
  2
SE6
 70
     0
 10
0.0
 20
0.0
 30
0.0
  3
SE6
  1

  0
LINE
  5
1FA
330
78
100
AcDbEntity
  8
AM_2
  6
Continuous
 62
   254
100
AcDbLine
 10
92.98256058075891
 20
159.4888346551672
 30
0.0
 11
79.74013262258337
 21
159.4888346551672
 31
0.0
  0
LINE
  5
1FB
330
78
100
AcDbEntity
  8
AM_2
  6
Continuous
 62
   254
100
AcDbLine
 10
92.98256058075891
 20
141.8888346551672
 30
0.0
 11
79.74013262258337
 21
141.8888346551672
 31
0.0
  0
LINE
  5
1FC
330
78
100
AcDbEntity
  8
AM_2
  6
Continuous
 62
   254
100
AcDbLine
 10
81.24013263562188
 20
159.4888346551672
 30
0.0
 11
81.24013263562188
 21
141.8888347505346
 31
0.0
  0
TEXT
  5
1FD
330
78
100
AcDbEntity
  8
AM_2
  6
Continuous
 62
   254
100
AcDbText
 10
80.49013263562189
 20
147.9274710664872
 30
0.0
 40
3.0
  1
17,6
 50
90.0
 11
77.49013263562189
 21
147.9274710664872
 31
0.0
100
AcDbText
 73
     3
  0
ENDBLK
  5
1FE
330
78
100
AcDbEntity
  8
0
100
AcDbBlockEnd
  0
BLOCK
  5
1FF
330
79
100
AcDbEntity
  8
0
100
AcDbBlockBegin
  2
SE7
 70
     0
 10
0.0
 20
0.0
 30
0.0
  3
SE7
  1

  0
LINE
  5
200
330
79
100
AcDbEntity
  8
AM_2
  6
Continuous
 62
   254
100
AcDbLine
 10
92.98256058075891
 20
141.8888346551672
 30
0.0
 11
79.74013262258337
 21
141.8888346551672
 31
0.0
  0
LINE
  5
201
330
79
100
AcDbEntity
  8
AM_2
  6
Continuous
 62
   254
100
AcDbLine
 10
91.10756058075891
 20
128.1888346551672
 30
0.0
 11
79.74013262258337
 21
128.1888346551672
 31
0.0
  0
LINE
  5
202
330
79
100
AcDbEntity
  8
AM_2
  6
Continuous
 62
   254
100
AcDbLine
 10
81.24013263562188
 20
141.8888346551672
 30
0.0
 11
81.24013263562188
 21
128.1888346447364
 31
0.0
  0
TEXT
  5
203
330
79
100
AcDbEntity
  8
AM_2
  6
Continuous
 62
   254
100
AcDbText
 10
80.49013263562189
 20
132.4138346499518
 30
0.0
 40
3.0
  1
13,7
 50
90.0
 11
77.49013263562189
 21
132.4138346499518
 31
0.0
100
AcDbText
 73
     3
  0
ENDBLK
  5
204
330
79
100
AcDbEntity
  8
0
100
AcDbBlockEnd
  0
BLOCK
  5
205
330
7A
100
AcDbEntity
  8
0
100
AcDbBlockBegin
  2
SE8
 70
     0
 10
0.0
 20
0.0
 30
0.0
  3
SE8
  1

  0
LINE
  5
206
330
7A
100
AcDbEntity
  8
AM_2
  6
Continuous
 62
   254
100
AcDbLine
 10
89.78256058075894
 20
164.685557426022
 30
0.0
 11
103.5825604213165
 21
164.685557426022
 31
0.0
  0
TEXT
  5
207
330
7A
100
AcDbEntity
  8
AM_2
  6
Continuous
 62
   254
100
AcDbText
 10
94.05756050103773
 20
165.435557426022
 30
0.0
 40
3.0
  1
13,8
 11
94.05756050103773
 21
168.435557426022
 31
0.0
100
AcDbText
 73
     3
  0
ENDBLK
  5
208
330
7A
100
AcDbEntity
  8
0
100
AcDbBlockEnd
  0
BLOCK
  5
209
330
7B
100
AcDbEntity
  8
0
100
AcDbBlockBegin
  2
SE9
 70
     0
 10
0.0
 20
0.0
 30
0.0
  3
SE9
  1

  0
LINE
  5
20A
330
7B
100
AcDbEntity
  8
AM_2
  6
Continuous
 62
   254
100
AcDbLine
 10
102.2575605807589
 20
173.1888346551672
 30
0.0
 11
114.4947888010876
 21
173.1888346551672
 31
0.0
  0
LINE
  5
20B
330
7B
100
AcDbEntity
  8
AM_2
  6
Continuous
 62
   254
100
AcDbLine
 10
105.6825605807589
 20
154.8388346551672
 30
0.0
 11
114.4947888010876
 21
154.8388346551672
 31
0.0
  0
LINE
  5
20C
330
7B
100
AcDbEntity
  8
AM_2
  6
Continuous
 62
   254
100
AcDbLine
 10
112.9947887880491
 20
173.1888346551672
 30
0.0
 11
112.9947887880491
 21
154.8388350932613
 31
0.0
  0
TEXT
  5
20D
330
7B
100
AcDbEntity
  8
AM_2
  6
Continuous
 62
   254
100
AcDbText
 10
112.2447887880491
 20
160.5365621469415
 30
0.0
 40
3.0
  1
18,35
 50
90.0
 11
109.2447887880491
 21
160.5365621469415
 31
0.0
100
AcDbText
 73
     3
  0
ENDBLK
  5
20E
330
7B
100
AcDbEntity
  8
0
100
AcDbBlockEnd
  0
BLOCK
  5
20F
330
7C
100
AcDbEntity
  8
0
100
AcDbBlockBegin
  2
_MODEL_SPACE1
 70
     0
 10
0.0
 20
0.0
 30
0.0
  3
_MODEL_SPACE1
  1

  0
ENDBLK
  5
210
330
7C
100
AcDbEntity
  8
0
100
AcDbBlockEnd
  0
BLOCK
  5
211
330
7D
100
AcDbEntity
  8
0
100
AcDbBlockBegin
  2
_PAPER_SPACE1
 70
     0
 10
0.0
 20
0.0
 30
0.0
  3
_PAPER_SPACE1
  1

  0
ENDBLK
  5
212
330
7D
100
AcDbEntity
  8
0
100
AcDbBlockEnd
  0
BLOCK
  5
213
330
7E
100
AcDbEntity
  8
0
100
AcDbBlockBegin
  2
_SE_BLANK
 70
     0
 10
0.0
 20
0.0
 30
0.0
  3
_SE_BLANK
  1

  0
LINE
  5
214
330
7E
100
AcDbEntity
  8
AM_2
  6
Continuous
 62
   254
100
AcDbLine
 10
0.0
 20
0.0
 30
0.0
 11
-1.0
 21
0.0
 31
0.0
  0
ENDBLK
  5
215
330
7E
100
AcDbEntity
  8
0
100
AcDbBlockEnd
  0
BLOCK
  5
216
330
7F
100
AcDbEntity
  8
0
100
AcDbBlockBegin
  2
_SE_FILLED
 70
     0
 10
0.0
 20
0.0
 30
0.0
  3
_SE_FILLED
  1

  0
LINE
  5
217
330
7F
100
AcDbEntity
  8
AM_2
  6
Continuous
 62
   254
100
AcDbLine
 10
0.0
 20
0.0
 30
0.0
 11
-1.0
 21
-0.1665
 31
0.0
  0
LINE
  5
218
330
7F
100
AcDbEntity
  8
AM_2
  6
Continuous
 62
   254
100
AcDbLine
 10
-1.0
 20
-0.1665
 30
0.0
 11
0.0
 21
0.0
 31
0.0
  0
LINE
  5
219
330
7F
100
AcDbEntity
  8
AM_2
  6
Continuous
 62
   254
100
AcDbLine
 10
0.0
 20
0.0
 30
0.0
 11
-1.0
 21
0.1665
 31
0.0
  0
LINE
  5
21A
330
7F
100
AcDbEntity
  8
AM_2
  6
Continuous
 62
   254
100
AcDbLine
 10
-1.0
 20
0.1665
 30
0.0
 11
0.0
 21
0.0
 31
0.0
  0
HATCH
  5
21B
330
7F
100
AcDbEntity
  8
AM_2
  6
Continuous
 62
   254
100
AcDbHatch
 10
0.0
 20
0.0
 30
0.0
210
0.0
220
0.0
230
1.0
  2
ANSI31
 70
     0
 71
     0
 91
        1
 92
        1
 93
        4
 72
     1
 10
0.0
 20
0.0
 11
-1.0
 21
-0.1665
 72
     1
 10
-1.0
 20
-0.1665
 11
0.0
 21
0.0
 72
     1
 10
0.0
 20
0.0
 11
-1.0
 21
0.1665
 72
     1
 10
-1.0
 20
0.1665
 11
0.0
 21
0.0
 97
        0
 75
     0
 76
     1
 52
315.0
 41
0.0010488188906213
 77
     0
 78
     1
 53
0.0
 43
0.0
 44
0.0
 45
0.0
 46
0.0033299999777228
 79
     0
 98
        1
 10
0.0
 20
0.0
  0
LINE
  5
21C
330
7F
100
AcDbEntity
  8
AM_2
  6
Continuous
 62
   254
100
AcDbLine
 10
0.0
 20
0.0
 30
0.0
 11
-1.0
 21
0.0
 31
0.0
  0
ENDBLK
  5
21D
330
7F
100
AcDbEntity
  8
0
100
AcDbBlockEnd
  0
BLOCK
  5
21E
330
80
100
AcDbEntity
  8
0
100
AcDbBlockBegin
  2
_S_110
 70
     0
 10
0.0
 20
0.0
 30
0.0
  3
_S_110
  1

  0
LINE
  5
21F
330
80
100
AcDbEntity
  8
15
  6
Continuous
 62
     4
100
AcDbLine
 10
29.37097698463912
 20
19.15417721404488
 30
0.0
 11
30.87097698463912
 21
16.15417721404488
 31
0.0
  0
LINE
  5
220
330
80
100
AcDbEntity
  8
15
  6
Continuous
 62
     4
100
AcDbLine
 10
30.87097698463912
 20
16.15417721404488
 30
0.0
 11
33.87097698463912
 21
22.15417721404489
 31
0.0
  0
CIRCLE
  5
221
330
80
100
AcDbEntity
  8
15
  6
Continuous
 62
     4
100
AcDbCircle
 10
30.87097698463912
 20
18.28815181026048
 30
0.0
 40
0.8660254037843976
  0
ENDBLK
  5
222
330
80
100
AcDbEntity
  8
0
100
AcDbBlockEnd
  0
BLOCK
  5
223
330
81
100
AcDbEntity
  8
0
100
AcDbBlockBegin
  2
_S_210
 70
     0
 10
0.0
 20
0.0
 30
0.0
  3
_S_210
  1

  0
LINE
  5
224
330
81
100
AcDbEntity
  8
15
  6
Continuous
 62
     4
100
AcDbLine
 10
48.36887513670271
 20
19.09975055406582
 30
0.0
 11
49.86887513670271
 21
16.09975055406582
 31
0.0
  0
LINE
  5
225
330
81
100
AcDbEntity
  8
15
  6
Continuous
 62
     4
100
AcDbLine
 10
49.86887513670271
 20
16.09975055406582
 30
0.0
 11
51.3688751367027
 21
19.09975055406582
 31
0.0
  0
LINE
  5
226
330
81
100
AcDbEntity
  8
15
  6
Continuous
 62
     4
100
AcDbLine
 10
51.3688751367027
 20
19.09975055406582
 30
0.0
 11
48.36887513670271
 21
19.09975055406582
 31
0.0
  0
ENDBLK
  5
227
330
81
100
AcDbEntity
  8
0
100
AcDbBlockEnd
  0
BLOCK
  5
228
330
82
100
AcDbEntity
  8
0
100
AcDbBlockBegin
  2
_S_38
 70
     0
 10
0.0
 20
0.0
 30
0.0
  3
_S_38
  1

  0
LINE
  5
229
330
82
100
AcDbEntity
  8
15
  6
Continuous
 62
     4
100
AcDbLine
 10
62.75655023884156
 20
19.09975055406582
 30
0.0
 11
64.25655023884157
 21
16.09975055406582
 31
0.0
  0
LINE
  5
22A
330
82
100
AcDbEntity
  8
15
  6
Continuous
 62
     4
100
AcDbLine
 10
64.25655023884157
 20
16.09975055406582
 30
0.0
 11
67.25655023884157
 21
22.09975055406582
 31
0.0
  0
TEXT
  5
22B
330
82
100
AcDbEntity
  8
15
  6
Continuous
 62
     4
100
AcDbText
 10
62.70631761309095
 20
19.59975055406582
 30
0.0
 40
2.0
  1
6,3
 11
62.70631761309095
 21
21.59975055406582
 31
0.0
100
AcDbText
 73
     3
  0
ENDBLK
  5
22C
330
82
100
AcDbEntity
  8
0
100
AcDbBlockEnd
  0
BLOCK
  5
22D
330
83
100
AcDbEntity
  8
0
100
AcDbBlockBegin
  2
_S_41
 70
     0
 10
0.0
 20
0.0
 30
0.0
  3
_S_41
  1

  0
LINE
  5
22E
330
83
100
AcDbEntity
  8
15
  6
Continuous
 62
     4
100
AcDbLine
 10
115.3040245148253
 20
19.16901056422762
 30
0.0
 11
116.8040245148253
 21
16.16901056422762
 31
0.0
  0
LINE
  5
22F
330
83
100
AcDbEntity
  8
15
  6
Continuous
 62
     4
100
AcDbLine
 10
116.8040245148253
 20
16.16901056422762
 30
0.0
 11
118.3040245148253
 21
19.16901056422762
 31
0.0
  0
LINE
  5
230
330
83
100
AcDbEntity
  8
15
  6
Continuous
 62
     4
100
AcDbLine
 10
118.3040245148253
 20
19.16901056422762
 30
0.0
 11
115.3040245148253
 21
19.16901056422762
 31
0.0
  0
LINE
  5
231
330
83
100
AcDbEntity
  8
15
  6
Continuous
 62
     4
100
AcDbLine
 10
115.3040245148253
 20
19.16901056422762
 30
0.0
 11
113.8040245148253
 21
16.16901056422762
 31
0.0
  0
LINE
  5
232
330
83
100
AcDbEntity
  8
15
  6
Continuous
 62
     4
100
AcDbLine
 10
113.8040245148253
 20
16.16901056422762
 30
0.0
 11
112.3040245148253
 21
19.16901056422762
 31
0.0
  0
LINE
  5
233
330
83
100
AcDbEntity
  8
15
  6
Continuous
 62
     4
100
AcDbLine
 10
112.3040245148253
 20
19.16901056422762
 30
0.0
 11
115.3040245148253
 21
19.16901056422762
 31
0.0
  0
LINE
  5
234
330
83
100
AcDbEntity
  8
15
  6
Continuous
 62
     4
100
AcDbLine
 10
112.3040245148253
 20
19.16901056422762
 30
0.0
 11
110.8040245148253
 21
16.16901056422762
 31
0.0
  0
LINE
  5
235
330
83
100
AcDbEntity
  8
15
  6
Continuous
 62
     4
100
AcDbLine
 10
110.8040245148253
 20
16.16901056422762
 30
0.0
 11
109.3040245148253
 21
19.16901056422762
 31
0.0
  0
LINE
  5
236
330
83
100
AcDbEntity
  8
15
  6
Continuous
 62
     4
100
AcDbLine
 10
109.3040245148253
 20
19.16901056422762
 30
0.0
 11
112.3040245148253
 21
19.16901056422762
 31
0.0
  0
ENDBLK
  5
237
330
83
100
AcDbEntity
  8
0
100
AcDbBlockEnd
  0
BLOCK
  5
238
330
84
100
AcDbEntity
  8
0
100
AcDbBlockBegin
  2
_S_51
 70
     0
 10
0.0
 20
0.0
 30
0.0
  3
_S_51
  1

  0
LINE
  5
239
330
84
100
AcDbEntity
  8
15
  6
Continuous
 62
     4
100
AcDbLine
 10
123.1668267492567
 20
19.19819541103695
 30
0.0
 11
124.6668267492567
 21
16.19819541103695
 31
0.0
  0
LINE
  5
23A
330
84
100
AcDbEntity
  8
15
  6
Continuous
 62
     4
100
AcDbLine
 10
124.6668267492567
 20
16.19819541103695
 30
0.0
 11
127.6668267492567
 21
22.19819541103695
 31
0.0
  0
TEXT
  5
23B
330
84
100
AcDbEntity
  8
15
  6
Continuous
 62
     4
100
AcDbText
 10
123.025685032597
 20
19.69819541103695
 30
0.0
 40
2.0
  1
0,8
 11
123.025685032597
 21
21.69819541103695
 31
0.0
100
AcDbText
 73
     3
  0
ENDBLK
  5
23C
330
84
100
AcDbEntity
  8
0
100
AcDbBlockEnd
  0
BLOCK
  5
23D
330
85
100
AcDbEntity
  8
0
100
AcDbBlockBegin
  2
_S_61
 70
     0
 10
0.0
 20
0.0
 30
0.0
  3
_S_61
  1

  0
LINE
  5
23E
330
85
100
AcDbEntity
  8
15
  6
Continuous
 62
     4
100
AcDbLine
 10
81.81406025671922
 20
19.13960192084521
 30
0.0
 11
83.31406025671922
 21
16.13960192084521
 31
0.0
  0
LINE
  5
23F
330
85
100
AcDbEntity
  8
15
  6
Continuous
 62
     4
100
AcDbLine
 10
83.31406025671922
 20
16.13960192084521
 30
0.0
 11
84.81406025671923
 21
19.13960192084521
 31
0.0
  0
LINE
  5
240
330
85
100
AcDbEntity
  8
15
  6
Continuous
 62
     4
100
AcDbLine
 10
84.81406025671923
 20
19.13960192084521
 30
0.0
 11
81.81406025671924
 21
19.13960192084521
 31
0.0
  0
LINE
  5
241
330
85
100
AcDbEntity
  8
15
  6
Continuous
 62
     4
100
AcDbLine
 10
81.81406025671922
 20
19.13960192084521
 30
0.0
 11
80.31406025671921
 21
16.13960192084521
 31
0.0
  0
LINE
  5
242
330
85
100
AcDbEntity
  8
15
  6
Continuous
 62
     4
100
AcDbLine
 10
80.31406025671921
 20
16.13960192084521
 30
0.0
 11
78.81406025671921
 21
19.13960192084521
 31
0.0
  0
LINE
  5
243
330
85
100
AcDbEntity
  8
15
  6
Continuous
 62
     4
100
AcDbLine
 10
78.81406025671921
 20
19.13960192084521
 30
0.0
 11
81.81406025671922
 21
19.13960192084521
 31
0.0
  0
ENDBLK
  5
244
330
85
100
AcDbEntity
  8
0
100
AcDbBlockEnd
  0
BLOCK
  5
245
330
86
100
AcDbEntity
  8
0
100
AcDbBlockBegin
  2
_S_71
 70
     0
 10
0.0
 20
0.0
 30
0.0
  3
_S_71
  1

  0
LINE
  5
246
330
86
100
AcDbEntity
  8
15
  6
Continuous
 62
     4
100
AcDbLine
 10
92.37591191907794
 20
19.13960192084521
 30
0.0
 11
93.87591191907793
 21
16.13960192084521
 31
0.0
  0
LINE
  5
247
330
86
100
AcDbEntity
  8
15
  6
Continuous
 62
     4
100
AcDbLine
 10
93.87591191907793
 20
16.13960192084521
 30
0.0
 11
96.87591191907793
 21
22.13960192084521
 31
0.0
  0
TEXT
  5
248
330
86
100
AcDbEntity
  8
15
  6
Continuous
 62
     4
100
AcDbText
 10
92.43931565696367
 20
19.6396019208452
 30
0.0
 40
2.0
  1
1,6
 11
92.43931565696367
 21
21.63960192084521
 31
0.0
100
AcDbText
 73
     3
  0
ENDBLK
  5
249
330
86
100
AcDbEntity
  8
0
100
AcDbBlockEnd
  0
BLOCK
  5
24A
330
87
100
AcDbEntity
  8
0
100
AcDbBlockBegin
  2
DD
 70
     0
 10
0.0
 20
0.0
 30
0.0
  3
DD
  1

  0
LINE
  5
24B
330
87
100
AcDbEntity
  8
AM_8
  6
Continuous
 62
     4
100
AcDbLine
 10
-144.1186828613282
 20
93.95964927673333
 30
0.0
 11
55.38131713867187
 21
93.95964927673333
 31
0.0
  0
LINE
  5
24C
330
87
100
AcDbEntity
  8
AM_1
  6
Continuous
 62
     4
100
AcDbLine
 10
-144.1186828613282
 20
8.384649276733398
 30
0.0
 11
55.38131713867176
 21
8.384649276733398
 31
0.0
  0
LINE
  5
24D
330
87
100
AcDbEntity
  8
AM_1
  6
Continuous
 62
     4
100
AcDbLine
 10
-144.1186828613282
 20
39.8846492767334
 30
0.0
 11
-12.86868286132812
 21
39.8846492767334
 31
0.0
  0
LINE
  5
24E
330
87
100
AcDbEntity
  8
AM_1
  6
Continuous
 62
     4
100
AcDbLine
 10
-12.86868286132812
 20
8.384649276733398
 30
0.0
 11
-12.86868286132812
 21
71.38464927673339
 31
0.0
  0
LINE
  5
24F
330
87
100
AcDbEntity
  8
AM_1
  6
Continuous
 62
     4
100
AcDbLine
 10
-144.1186828613282
 20
55.6346492767334
 30
0.0
 11
55.38131713867176
 21
55.6346492767334
 31
0.0
  0
LINE
  5
250
330
87
100
AcDbEntity
  8
AM_1
  6
Continuous
 62
     4
100
AcDbLine
 10
-144.1186828613282
 20
71.38464927673339
 30
0.0
 11
55.38131713867176
 21
71.38464927673339
 31
0.0
  0
LINE
  5
251
330
87
100
AcDbEntity
  8
AM_1
  6
Continuous
 62
     4
100
AcDbLine
 10
-12.86868286132812
 20
63.5096492767334
 30
0.0
 11
55.38131713867187
 21
63.5096492767334
 31
0.0
  0
LINE
  5
252
330
87
100
AcDbEntity
  8
AM_1
  6
Continuous
 62
     4
100
AcDbLine
 10
-144.1186828613282
 20
79.2596492767334
 30
0.0
 11
55.38131713867176
 21
79.2596492767334
 31
0.0
  0
LINE
  5
253
330
87
100
AcDbEntity
  8
AM_1
  6
Continuous
 62
     4
100
AcDbLine
 10
-144.1186828613282
 20
83.45964927673344
 30
0.0
 11
55.38131713867176
 21
83.45964927673344
 31
0.0
  0
LINE
  5
254
330
87
100
AcDbEntity
  8
AM_1
  6
Continuous
 62
     4
100
AcDbLine
 10
-144.1186828613282
 20
88.70964927673345
 30
0.0
 11
55.38131713867176
 21
88.70964927673345
 31
0.0
  0
LINE
  5
255
330
87
100
AcDbEntity
  8
AM_1
  6
Continuous
 62
     4
100
AcDbLine
 10
-144.1186828613282
 20
93.95964927673345
 30
0.0
 11
55.38131713867176
 21
93.95964927673345
 31
0.0
  0
LINE
  5
256
330
87
100
AcDbEntity
  8
AM_1
  6
Continuous
 62
     4
100
AcDbLine
 10
-128.3686828613282
 20
93.95964927673345
 30
0.0
 11
-128.3686828613282
 21
83.45964927673344
 31
0.0
  0
LINE
  5
257
330
87
100
AcDbEntity
  8
AM_1
  6
Continuous
 62
     4
100
AcDbLine
 10
-33.86868286132824
 20
79.2596492767334
 30
0.0
 11
-33.86868286132824
 21
71.38464927673339
 31
0.0
  0
LINE
  5
258
330
87
100
AcDbEntity
  8
AM_1
  6
Continuous
 62
     4
100
AcDbLine
 10
-128.3686828613282
 20
79.2596492767334
 30
0.0
 11
-128.3686828613282
 21
71.38464927673339
 31
0.0
  0
LINE
  5
259
330
87
100
AcDbEntity
  8
AM_1
  6
Continuous
 62
     4
100
AcDbLine
 10
18.63131713867176
 20
93.95964927673345
 30
0.0
 11
18.63131713867176
 21
83.45964927673344
 31
0.0
  0
LINE
  5
25A
330
87
100
AcDbEntity
  8
AM_1
  6
Continuous
 62
     4
100
AcDbLine
 10
36.48131713867178
 20
93.95964927673345
 30
0.0
 11
36.48131713867178
 21
83.45964927673344
 31
0.0
  0
TEXT
  5
25B
330
87
100
AcDbEntity
  8
AM_1
  6
Continuous
 62
     4
100
AcDbText
 10
-138.8006571546466
 20
80.64489111931118
 30
0.0
 40
1.679999947547912
  1
REV.
  7
TSTYLE2
 11
-138.8006571546466
 21
82.32489106685909
 31
0.0
100
AcDbText
 73
     3
  0
TEXT
  5
25C
330
87
100
AcDbEntity
  8
AM_1
  6
Continuous
 62
     4
100
AcDbText
 10
-73.97537859217672
 20
80.50096035116338
 30
0.0
 40
1.679999947547912
  1
DESCRIZIONE MODIFICA
  7
TSTYLE2
 11
-73.97537859217672
 21
82.18096029871128
 31
0.0
100
AcDbText
 73
     3
  0
TEXT
  5
25D
330
87
100
AcDbEntity
  8
AM_1
  6
Continuous
 62
     4
100
AcDbText
 10
24.36735731652419
 20
80.49654485273709
 30
0.0
 40
1.679999947547912
  1
DATA
  7
TSTYLE2
 11
24.36735731652419
 21
82.176544800285
 31
0.0
100
AcDbText
 73
     3
  0
TEXT
  5
25E
330
87
100
AcDbEntity
  8
AM_1
  6
Continuous
 62
     4
100
AcDbText
 10
42.38765672085412
 20
80.49104952627727
 30
0.0
 40
1.679999947547912
  1
DISEG.
  7
TSTYLE2
 11
42.38765672085412
 21
82.17104947382518
 31
0.0
100
AcDbText
 73
     3
  0
TEXT
  5
25F
330
87
100
AcDbEntity
  8
AM_1
  6
Continuous
 62
     4
100
AcDbText
 10
-142.8558432877828
 20
72.84893327262046
 30
0.0
 40
2.519999980926513
  1
POS. .
  7
TSTYLE3
 11
-142.8558432877828
 21
75.36893325354697
 31
0.0
100
AcDbText
 73
     3
  0
TEXT
  5
260
330
87
100
AcDbEntity
  8
AM_1
  6
Continuous
 62
     4
100
AcDbText
 10
-126.4213676174564
 20
73.56759499688109
 30
0.0
 40
2.940000057220458
  1
MATERIALE:PVC GRIGIO sp.2,5 AD.
  7
TSTYLE4
 11
-126.4213676174564
 21
76.50759505410156
 31
0.0
100
AcDbText
 73
     3
  0
TEXT
  5
261
330
87
100
AcDbEntity
  8
AM_1
  6
Continuous
 62
     4
100
AcDbText
 10
-32.87645044732415
 20
72.63407374472206
 30
0.0
 40
2.519999980926513
  1
TRATTAMENTI: .
  7
TSTYLE3
 11
-32.87645044732415
 21
75.15407372564857
 31
0.0
100
AcDbText
 73
     3
  0
TEXT
  5
262
330
87
100
AcDbEntity
  8
AM_1
  6
Continuous
 62
     4
100
AcDbText
 10
-141.5193127310718
 20
66.45753363002905
 30
0.0
 40
2.940000057220458
  1
DENOMINAZIONE:
  7
TSTYLE4
 11
-141.5193127310718
 21
69.3975336872495
 31
0.0
100
AcDbText
 73
     3
  0
TEXT
  5
263
330
87
100
AcDbEntity
  8
AM_1
  6
Continuous
 62
     4
100
AcDbText
 10
-141.874795149162
 20
5.533987180199574
 30
0.0
 40
1.259999990463256
  1
SI VIETA L'USO E LA RIRPODUZIONE O LA VISIONE A TERZI DEL PRESENTE DISEGNO SENZA ESPLICITA AUTORIZZAZIONE,
  7
TSTYLE5
 11
-141.874795149162
 21
6.79398717066283
 31
0.0
100
AcDbText
 73
     3
  0
TEXT
  5
264
330
87
100
AcDbEntity
  8
AM_1
  6
Continuous
 62
     4
100
AcDbText
 10
-8.472606261999402
 20
5.586707303728985
 30
0.0
 40
1.259999990463256
  1
DIERRE
  7
TSTYLE5
 11
-8.472606261999402
 21
6.846707294192242
 31
0.0
100
AcDbText
 73
     3
  0
TEXT
  5
265
330
87
100
AcDbEntity
  8
AM_1
  6
Continuous
 62
     4
100
AcDbText
 10
-1.889598158195127
 20
5.586706302370998
 30
0.0
 40
1.259999990463256
  1
 TUTELERA' I PROPRI DIRITTI A NORMA DI LEGGE
  7
TSTYLE5
 11
-1.889598158195127
 21
6.846706292834255
 31
0.0
100
AcDbText
 73
     3
  0
TEXT
  5
266
330
87
100
AcDbEntity
  8
AM_1
  6
Continuous
 62
     4
100
AcDbText
 10
-142.1942536795581
 20
50.1031035076536
 30
0.0
 40
2.940000057220458
  1
MACCHINA:
  7
TSTYLE4
 11
-142.1942536795581
 21
53.04310356487405
 31
0.0
100
AcDbText
 73
     3
  0
LINE
  5
267
330
87
100
AcDbEntity
  8
AM_1
  6
Continuous
 62
     4
100
AcDbLine
 10
-128.3686828613282
 20
83.45964927673344
 30
0.0
 11
-128.3686828613282
 21
79.2596492767334
 31
0.0
  0
LINE
  5
268
330
87
100
AcDbEntity
  8
AM_1
  6
Continuous
 62
     4
100
AcDbLine
 10
36.48131713867178
 20
83.45964927673344
 30
0.0
 11
36.48131713867178
 21
79.2596492767334
 31
0.0
  0
LINE
  5
269
330
87
100
AcDbEntity
  8
AM_1
  6
Continuous
 62
     4
100
AcDbLine
 10
18.63131713867176
 20
83.45964927673344
 30
0.0
 11
18.63131713867176
 21
79.2596492767334
 31
0.0
  0
TEXT
  5
26A
330
87
100
AcDbEntity
  8
AM_2
  6
Continuous
 62
     4
100
AcDbText
 10
-76.27386989413833
 20
32.93767574746762
 30
0.0
 40
1.732499957084655
  1
CIRCOND. S. GIOVANNI EV. 23
 50
0.5
  7
TSTYLE6
 11
-76.28898861651475
 21
34.67010973626259
 31
0.0
100
AcDbText
 73
     3
  0
TEXT
  5
26B
330
87
100
AcDbEntity
  8
AM_2
  6
Continuous
 62
     4
100
AcDbText
 10
-76.25020580705916
 20
30.2260398717436
 30
0.0
 40
1.732499957084655
  1
41042 Spezzano (MO)
 50
0.5
  7
TSTYLE6
 11
-76.26532452943559
 21
31.95847386053856
 31
0.0
100
AcDbText
 73
     3
  0
TEXT
  5
26C
330
87
100
AcDbEntity
  8
AM_2
  6
Continuous
 62
     4
100
AcDbText
 10
-76.22654171997996
 20
27.51440399601945
 30
0.0
 40
1.732499957084655
  1
Tel.  0536 / 921322
 50
0.5
  7
TSTYLE6
 11
-76.24166044235639
 21
29.24683798481442
 31
0.0
100
AcDbText
 73
     3
  0
TEXT
  5
26D
330
87
100
AcDbEntity
  8
AM_2
  6
Continuous
 62
     4
100
AcDbText
 10
-76.20287763290088
 20
24.80276812029543
 30
0.0
 40
1.732499957084655
  1
Fax. 0536 / 921218
 50
0.5
  7
TSTYLE6
 11
-76.21799635527731
 21
26.53520210909039
 31
0.0
100
AcDbText
 73
     3
  0
TEXT
  5
26E
330
87
100
AcDbEntity
  8
AM_2
  6
Continuous
 62
     4
100
AcDbText
 10
-76.17921354582188
 20
22.09113224457128
 30
0.0
 40
1.732499957084655
  1
E-mail. tecnico@dierreprotezioni.com
 50
0.5
  7
TSTYLE6
 11
-76.19433226819831
 21
23.82356623336625
 31
0.0
100
AcDbText
 73
     3
  0
LINE
  5
26F
330
87
100
AcDbEntity
  8
AM_1
  6
Continuous
 62
     4
100
AcDbLine
 10
55.38131713867187
 20
16.78464927673337
 30
0.0
 11
-144.1186828613282
 21
16.78464927673337
 31
0.0
  0
LINE
  5
270
330
87
100
AcDbEntity
  8
AM_1
  6
Continuous
 62
     4
100
AcDbLine
 10
-46.46868286132817
 20
8.384649276733398
 30
0.0
 11
-46.46868286132817
 21
16.78464927673337
 31
0.0
  0
LINE
  5
271
330
87
100
AcDbEntity
  8
AM_1
  6
Continuous
 62
     4
100
AcDbLine
 10
-111.5686828613282
 20
8.384649276733398
 30
0.0
 11
-111.5686828613282
 21
16.78464927673337
 31
0.0
  0
LINE
  5
272
330
87
100
AcDbEntity
  8
AM_1
  6
Continuous
 62
     4
100
AcDbLine
 10
-79.01868286132819
 20
8.384649276733398
 30
0.0
 11
-79.01868286132819
 21
16.78464927673337
 31
0.0
  0
TEXT
  5
273
330
87
100
AcDbEntity
  8
AM_1
  6
Continuous
 62
     4
100
AcDbText
 10
-143.2777976273939
 20
57.54301819253829
 30
0.0
 40
3.674999952316284
  1
COPERCHIO DX CIECO X CERNIERA
  7
TSTYLE7
 11
-143.2777976273939
 21
61.21801814485457
 31
0.0
100
AcDbText
 73
     3
  0
TEXT
  5
274
330
87
100
AcDbEntity
  8
AM_1
  6
Continuous
 62
     4
100
AcDbText
 10
-143.4608917481116
 20
44.72514019934862
 30
0.0
 40
3.674999952316284
  1
.
  7
TSTYLE7
 11
-143.4608917481116
 21
48.40014015166492
 31
0.0
100
AcDbText
 73
     3
  0
ARC
  5
275
330
87
100
AcDbEntity
  8
AM_2
  6
Continuous
 62
     4
100
AcDbCircle
 10
-134.3000617883856
 20
29.45309178282582
 30
0.0
 40
8.950512538357997
100
AcDbArc
 50
237.8184274609712
 51
321.1976420062186
  0
ARC
  5
276
330
87
100
AcDbEntity
  8
AM_2
  6
Continuous
 62
     4
100
AcDbCircle
 10
-133.6818816355342
 20
28.57365102014285
 30
0.0
 40
7.923273494542144
100
AcDbArc
 50
323.3529774062099
 51
44.65536847520892
  0
LINE
  5
277
330
87
100
AcDbEntity
  8
AM_2
  6
Continuous
 62
     4
100
AcDbLine
 10
-126.0894867670623
 20
36.16729576230103
 30
0.0
 11
-128.0456833830475
 21
34.14245090234181
 31
0.0
  0
ARC
  5
278
330
87
100
AcDbEntity
  8
AM_2
  6
Continuous
 62
     4
100
AcDbCircle
 10
-132.8767752761388
 20
29.29355480889308
 30
0.0
 40
9.659999999999996
100
AcDbArc
 50
230.1466606583756
 51
45.3625857098742
  0
ARC
  5
279
330
87
100
AcDbEntity
  8
AM_2
  6
Continuous
 62
     4
100
AcDbCircle
 10
-132.6331110710162
 20
29.49106686163816
 30
0.0
 40
5.904819344660666
100
AcDbArc
 50
227.8543072058527
 51
46.85228652636402
  0
LINE
  5
27A
330
87
100
AcDbEntity
  8
AM_2
  6
Continuous
 62
     4
100
AcDbLine
 10
-129.7963555310607
 20
32.49475946891767
 30
0.0
 11
-128.5949138608555
 21
33.79918185371185
 31
0.0
  0
ARC
  5
27B
330
87
100
AcDbEntity
  8
AM_2
  6
Continuous
 62
     4
100
AcDbCircle
 10
-133.4373679865605
 20
29.0263231117533
 30
0.0
 40
5.028620334127936
100
AcDbArc
 50
231.0971291909961
 51
43.6094645412201
  0
ARC
  5
27C
330
87
100
AcDbEntity
  8
AM_2
  6
Continuous
 62
     4
100
AcDbCircle
 10
-132.9324814372679
 20
29.76585896407539
 30
0.0
 40
5.904819344660666
100
AcDbArc
 50
47.85430720585243
 51
226.8522865263638
  0
LINE
  5
27D
330
87
100
AcDbEntity
  8
AM_2
  6
Continuous
 62
     4
100
AcDbLine
 10
-135.7692369772234
 20
26.76216635679589
 30
0.0
 11
-136.9706786474286
 21
25.45774397200182
 31
0.0
  0
ARC
  5
27E
330
87
100
AcDbEntity
  8
AM_2
  6
Continuous
 62
     4
100
AcDbCircle
 10
-132.1282245217236
 20
30.23060271396025
 30
0.0
 40
5.028620334127936
100
AcDbArc
 50
51.09712919099617
 51
223.60946454122
  0
LINE
  5
27F
330
87
100
AcDbEntity
  8
AM_2
  6
Continuous
 62
     4
100
AcDbLine
 10
-137.7258705544146
 20
24.94284039905676
 30
0.0
 11
-139.892155052951
 21
22.65276821488976
 31
0.0
  0
ARC
  5
280
330
87
100
AcDbEntity
  8
AM_2
  6
Continuous
 62
     4
100
AcDbCircle
 10
-132.8767752761388
 20
29.29355480889308
 30
0.0
 40
9.659999999999996
100
AcDbArc
 50
49.8261009425247
 51
223.4287517252032
  0
ARC
  5
281
330
87
100
AcDbEntity
  8
AM_2
  6
Continuous
 62
     4
100
AcDbCircle
 10
-131.8580453976787
 20
29.3329388432569
 30
0.0
 40
9.004254928678435
100
AcDbArc
 50
54.62314853321371
 51
125.3768514667855
  0
ARC
  5
282
330
87
100
AcDbEntity
  8
AM_2
  6
Continuous
 62
     4
100
AcDbCircle
 10
-133.0817640361757
 20
31.05635242705012
 30
0.0
 40
6.890575272957633
100
AcDbArc
 50
125.3768514667862
 51
178.6115147484764
  0
ARC
  5
283
330
87
100
AcDbEntity
  8
AM_2
  6
Continuous
 62
     4
100
AcDbCircle
 10
-133.0310306151145
 20
30.16191511103068
 30
0.0
 40
7.019990235378756
100
AcDbArc
 50
171.3036725542734
 51
228.0269063594526
  0
TEXT
  5
284
330
87
100
AcDbEntity
  8
AM_2
  6
Continuous
 62
     5
100
AcDbText
 10
-122.4070218079303
 20
19.03345852064567
 30
0.0
 40
2.11679983139038
  1
Engineering .s.r.l.
  7
TSTYLE8
 11
-122.4070218079303
 21
21.15025835203605
 31
0.0
100
AcDbText
 73
     3
  0
ARC
  5
285
330
87
100
AcDbEntity
  8
AM_2
  6
Continuous
 62
     4
100
AcDbCircle
 10
-116.3089383789464
 20
31.75386038772501
 30
0.0
 40
4.199999999999988
100
AcDbArc
 50
0.0
 51
89.99999999999994
  0
LINE
  5
286
330
87
100
AcDbEntity
  8
AM_2
  6
Continuous
 62
     4
100
AcDbLine
 10
-116.3089383789464
 20
35.95386038772494
 30
0.0
 11
-121.3489383789465
 21
35.95386038772494
 31
0.0
  0
LINE
  5
287
330
87
100
AcDbEntity
  8
AM_2
  6
Continuous
 62
     4
100
AcDbLine
 10
-121.3489383789465
 20
35.95386038772494
 30
0.0
 11
-121.3489383789465
 21
25.03386038772499
 31
0.0
  0
LINE
  5
288
330
87
100
AcDbEntity
  8
AM_2
  6
Continuous
 62
     4
100
AcDbLine
 10
-121.3489383789465
 20
25.03386038772499
 30
0.0
 11
-116.3089383789464
 21
25.03386038772499
 31
0.0
  0
ARC
  5
289
330
87
100
AcDbEntity
  8
AM_2
  6
Continuous
 62
     4
100
AcDbCircle
 10
-116.3089383789464
 20
29.23386038772492
 30
0.0
 40
4.199999999999988
100
AcDbArc
 50
269.9999999999998
 51
359.9999999999998
  0
LINE
  5
28A
330
87
100
AcDbEntity
  8
AM_2
  6
Continuous
 62
     4
100
AcDbLine
 10
-112.1089383789464
 20
29.23386038772492
 30
0.0
 11
-112.1089383789464
 21
31.7538603877249
 31
0.0
  0
LINE
  5
28B
330
87
100
AcDbEntity
  8
AM_2
  6
Continuous
 62
     4
100
AcDbLine
 10
-116.7289383789464
 20
34.06386038772496
 30
0.0
 11
-119.4589383789464
 21
34.06386038772496
 31
0.0
  0
LINE
  5
28C
330
87
100
AcDbEntity
  8
AM_2
  6
Continuous
 62
     4
100
AcDbLine
 10
-119.4589383789464
 20
34.06386038772496
 30
0.0
 11
-119.4589383789464
 21
26.92386038772497
 31
0.0
  0
LINE
  5
28D
330
87
100
AcDbEntity
  8
AM_2
  6
Continuous
 62
     4
100
AcDbLine
 10
-119.4589383789464
 20
26.92386038772497
 30
0.0
 11
-116.7289383789464
 21
26.92386038772497
 31
0.0
  0
ARC
  5
28E
330
87
100
AcDbEntity
  8
AM_2
  6
Continuous
 62
     4
100
AcDbCircle
 10
-116.7289383789464
 20
29.65386038772499
 30
0.0
 40
2.730000000000003
100
AcDbArc
 50
269.9999999999998
 51
359.9999999999998
  0
LINE
  5
28F
330
87
100
AcDbEntity
  8
AM_2
  6
Continuous
 62
     4
100
AcDbLine
 10
-113.9989383789465
 20
29.65386038772499
 30
0.0
 11
-113.9989383789465
 21
31.33386038772494
 31
0.0
  0
ARC
  5
290
330
87
100
AcDbEntity
  8
AM_2
  6
Continuous
 62
     4
100
AcDbCircle
 10
-116.7289383789464
 20
31.33386038772494
 30
0.0
 40
2.730000000000003
100
AcDbArc
 50
0.0
 51
89.99999999999994
  0
LINE
  5
291
330
87
100
AcDbEntity
  8
AM_2
  6
Continuous
 62
     4
100
AcDbLine
 10
-108.9573933311337
 20
33.43386038772496
 30
0.0
 11
-110.8473933311337
 21
33.43386038772496
 31
0.0
  0
LINE
  5
292
330
87
100
AcDbEntity
  8
AM_2
  6
Continuous
 62
     4
100
AcDbLine
 10
-110.8473933311337
 20
33.43386038772496
 30
0.0
 11
-110.8473933311337
 21
25.03386038772499
 31
0.0
  0
LINE
  5
293
330
87
100
AcDbEntity
  8
AM_2
  6
Continuous
 62
     4
100
AcDbLine
 10
-110.8473933311337
 20
25.03386038772499
 30
0.0
 11
-108.9573933311337
 21
25.03386038772499
 31
0.0
  0
LINE
  5
294
330
87
100
AcDbEntity
  8
AM_2
  6
Continuous
 62
     4
100
AcDbLine
 10
-108.9573933311337
 20
25.03386038772499
 30
0.0
 11
-108.9573933311337
 21
33.43386038772496
 31
0.0
  0
LINE
  5
295
330
87
100
AcDbEntity
  8
AM_2
  6
Continuous
 62
     4
100
AcDbLine
 10
-105.9339981204652
 20
28.80093185312217
 30
0.0
 11
-99.29741322963403
 21
28.80093185312217
 31
0.0
  0
ARC
  5
296
330
87
100
AcDbEntity
  8
AM_2
  6
Continuous
 62
     4
100
AcDbCircle
 10
-103.4973933311337
 20
29.23386038772492
 30
0.0
 40
4.200000000000017
100
AcDbArc
 50
354.0835439994036
 51
342.3574175336841
  0
LINE
  5
297
330
87
100
AcDbEntity
  8
AM_2
  6
Continuous
 62
     4
100
AcDbLine
 10
-101.4599137701905
 20
27.96093185312225
 30
0.0
 11
-99.49493746681808
 21
27.96093185312225
 31
0.0
  0
ARC
  5
298
330
87
100
AcDbEntity
  8
AM_2
  6
Continuous
 62
     4
100
AcDbCircle
 10
-103.4973933311337
 20
29.44386038772496
 30
0.0
 40
2.52000000000001
100
AcDbArc
 50
194.7813103722751
 51
323.9519363800348
  0
LINE
  5
299
330
87
100
AcDbEntity
  8
AM_2
  6
Continuous
 62
     4
100
AcDbLine
 10
-105.5652726572759
 20
30.4389318531222
 30
0.0
 11
-101.4290762702588
 21
30.4389318531222
 31
0.0
  0
ARC
  5
29A
330
87
100
AcDbEntity
  8
AM_2
  6
Continuous
 62
     4
100
AcDbCircle
 10
-103.4971744637673
 20
29.54139930690508
 30
0.0
 40
2.254461090707138
100
AcDbArc
 50
23.46032899248911
 51
156.5396710075119
  0
ARC
  5
29B
330
87
100
AcDbEntity
  8
AM_2
  6
Continuous
 62
     4
100
AcDbCircle
 10
-93.32483671833534
 20
27.7846428699495
 30
0.0
 40
3.969217836160197
100
AcDbArc
 50
89.97705113130264
 51
144.7782320142476
  0
LINE
  5
29C
330
87
100
AcDbEntity
  8
AM_2
  6
Continuous
 62
     4
100
AcDbLine
 10
-93.3232469143866
 20
31.7538603877249
 30
0.0
 11
-93.3232469143866
 21
33.43386038772496
 31
0.0
  0
LINE
  5
29D
330
87
100
AcDbEntity
  8
AM_2
  6
Continuous
 62
     4
100
AcDbLine
 10
-94.10846284387018
 20
33.43386038772496
 30
0.0
 11
-93.3232469143866
 21
33.43386038772496
 31
0.0
  0
ARC
  5
29E
330
87
100
AcDbEntity
  8
AM_2
  6
Continuous
 62
     4
100
AcDbCircle
 10
-93.91593172256571
 20
30.5125566886062
 30
0.0
 40
2.927641292090925
100
AcDbArc
 50
93.77067625261942
 51
154.9129671807307
  0
LINE
  5
29F
330
87
100
AcDbEntity
  8
AM_2
  6
Continuous
 62
     4
100
AcDbLine
 10
-84.76599812046519
 20
28.80093185312217
 30
0.0
 11
-78.129413229634
 21
28.80093185312217
 31
0.0
  0
ARC
  5
2A0
330
87
100
AcDbEntity
  8
AM_2
  6
Continuous
 62
     4
100
AcDbCircle
 10
-82.32939333113369
 20
29.23386038772492
 30
0.0
 40
4.199999999999988
100
AcDbArc
 50
354.0835439994036
 51
342.3574175336841
  0
LINE
  5
2A1
330
87
100
AcDbEntity
  8
AM_2
  6
Continuous
 62
     4
100
AcDbLine
 10
-80.29191377019058
 20
27.96093185312225
 30
0.0
 11
-78.32693746681812
 21
27.96093185312225
 31
0.0
  0
ARC
  5
2A2
330
87
100
AcDbEntity
  8
AM_2
  6
Continuous
 62
     4
100
AcDbCircle
 10
-82.32939333113369
 20
29.44386038772496
 30
0.0
 40
2.519999999999953
100
AcDbArc
 50
194.7813103722755
 51
323.9519363800356
  0
LINE
  5
2A3
330
87
100
AcDbEntity
  8
AM_2
  6
Continuous
 62
     4
100
AcDbLine
 10
-84.39727265727603
 20
30.4389318531222
 30
0.0
 11
-80.26107627025879
 21
30.4389318531222
 31
0.0
  0
ARC
  5
2A4
330
87
100
AcDbEntity
  8
AM_2
  6
Continuous
 62
     4
100
AcDbCircle
 10
-82.32917446376744
 20
29.54139930690508
 30
0.0
 40
2.254461090707167
100
AcDbArc
 50
23.46032899248816
 51
156.5396710075116
  0
LINE
  5
2A5
330
87
100
AcDbEntity
  8
AM_1
  6
Continuous
 62
     4
100
AcDbLine
 10
-12.86868286132812
 20
8.384649276733398
 30
0.0
 11
-12.86868286132812
 21
71.38464927673339
 31
0.0
  0
LINE
  5
2A6
330
87
100
AcDbEntity
  8
AM_1
  6
Continuous
 62
     4
100
AcDbLine
 10
25.9813171386719
 20
55.6346492767334
 30
0.0
 11
25.9813171386719
 21
71.38464927673339
 31
0.0
  0
TEXT
  5
2A7
330
87
100
AcDbEntity
  8
AM_1
  6
Continuous
 62
     4
100
AcDbText
 10
-12.31939982962677
 20
65.66815588344707
 30
0.0
 40
2.940000057220458
  1
Data:03-03-08
  7
TSTYLE4
 11
-12.31939982962677
 21
68.60815594066753
 31
0.0
100
AcDbText
 73
     3
  0
TEXT
  5
2A8
330
87
100
AcDbEntity
  8
AM_1
  6
Continuous
 62
     4
100
AcDbText
 10
26.94630631918892
 20
65.73709738124978
 30
0.0
 40
2.940000057220458
  1
Scala:.
  7
TSTYLE4
 11
26.94630631918892
 21
68.67709743847024
 31
0.0
100
AcDbText
 73
     3
  0
TEXT
  5
2A9
330
87
100
AcDbEntity
  8
AM_1
  6
Continuous
 62
     4
100
AcDbText
 10
-11.32321361136516
 20
57.41553495754374
 30
0.0
 40
2.940000057220458
  1
Diseg: M.A.
  7
TSTYLE4
 11
-11.32321361136516
 21
60.3555350147642
 31
0.0
100
AcDbText
 73
     3
  0
TEXT
  5
2AA
330
87
100
AcDbEntity
  8
AM_1
  6
Continuous
 62
     4
100
AcDbText
 10
27.05906083579038
 20
56.99369085659157
 30
0.0
 40
2.940000057220458
  1
Q.ta: .
  7
TSTYLE4
 11
27.05906083579038
 21
59.93369091381203
 31
0.0
100
AcDbText
 73
     3
  0
TEXT
  5
2AB
330
87
100
AcDbEntity
  8
AM_1
  6
Continuous
 62
     4
100
AcDbText
 10
-11.21042705130645
 20
50.33344775774708
 30
0.0
 40
2.940000057220458
  1
Rifer: .
  7
TSTYLE4
 11
-11.21042705130645
 21
53.27344781496754
 31
0.0
100
AcDbText
 73
     3
  0
TEXT
  5
2AC
330
87
100
AcDbEntity
  8
AM_1
  6
Continuous
 62
     4
100
AcDbText
 10
-11.67515607887307
 20
43.57983423680775
 30
0.0
 40
2.940000057220458
  1
Codice N°:
  7
TSTYLE4
 11
-11.67515607887307
 21
46.51983429402821
 31
0.0
100
AcDbText
 73
     3
  0
TEXT
  5
2AD
330
87
100
AcDbEntity
  8
AM_1
  6
Continuous
 62
     4
100
AcDbText
 10
-9.407998041903397
 20
19.15699769326625
 30
0.0
 40
1.3125
  1
Le QUOTE senza tolleranza si intendono h11/H11
  7
TSTYLE9
 11
-9.407998041903397
 21
20.46949769326625
 31
0.0
100
AcDbText
 73
     3
  0
TEXT
  5
2AE
330
87
100
AcDbEntity
  8
AM_1
  6
Continuous
 62
     4
100
AcDbText
 10
-9.06149736331622
 20
13.48668568927985
 30
0.0
 40
1.3125
  1
Negli spigoli smussi 0,5x45°
  7
TSTYLE9
 11
-9.06149736331622
 21
14.79918568927985
 31
0.0
100
AcDbText
 73
     3
  0
TEXT
  5
2AF
330
87
100
AcDbEntity
  8
AM_1
  6
Continuous
 62
     4
100
AcDbText
 10
-9.06149736331622
 20
11.3389584165526
 30
0.0
 40
1.3125
  1
smussi e raggi non quotati =1mm
  7
TSTYLE9
 11
-9.06149736331622
 21
12.6514584165526
 31
0.0
100
AcDbText
 73
     3
  0
LINE
  5
2B0
330
87
100
AcDbEntity
  8
AM_1
  6
Continuous
 62
     4
100
AcDbLine
 10
35.97293760598205
 20
12.52013568846917
 30
0.0
 11
52.55011315381705
 21
12.52013568846917
 31
0.0
  0
CIRCLE
  5
2B1
330
87
100
AcDbEntity
  8
AM_1
  6
Continuous
 62
     4
100
AcDbCircle
 10
49.40011315381702
 20
12.52013568846917
 30
0.0
 40
1.574999999999988
  0
CIRCLE
  5
2B2
330
87
100
AcDbEntity
  8
AM_1
  6
Continuous
 62
     4
100
AcDbCircle
 10
49.40011315381702
 20
12.52013568846917
 30
0.0
 40
3.150000000000034
  0
LINE
  5
2B3
330
87
100
AcDbEntity
  8
AM_1
  6
Continuous
 62
     4
100
AcDbLine
 10
43.48523513740764
 20
15.67013568846926
 30
0.0
 11
43.48523513740764
 21
9.066721300888502
 31
0.0
  0
LINE
  5
2B4
330
87
100
AcDbEntity
  8
AM_1
  6
Continuous
 62
     4
100
AcDbLine
 10
35.97293760598205
 20
14.09513568846921
 30
0.0
 11
35.97293760598205
 21
10.94513568846923
 31
0.0
  0
LINE
  5
2B5
330
87
100
AcDbEntity
  8
AM_1
  6
Continuous
 62
     4
100
AcDbLine
 10
43.48523513740764
 20
15.67013568846926
 30
0.0
 11
35.97293760598205
 21
14.09513568846921
 31
0.0
  0
LINE
  5
2B6
330
87
100
AcDbEntity
  8
AM_1
  6
Continuous
 62
     4
100
AcDbLine
 10
35.97293760598205
 20
10.94513568846923
 30
0.0
 11
43.48523513740764
 21
9.066721300888502
 31
0.0
  0
LINE
  5
2B7
330
87
100
AcDbEntity
  8
AM_1
  6
Continuous
 62
     4
100
AcDbLine
 10
49.40011315381702
 20
15.67013568846926
 30
0.0
 11
49.40011315381702
 21
9.37013568846919
 31
0.0
  0
LINE
  5
2B8
330
87
100
AcDbEntity
  8
AM_1
  6
Continuous
 62
     4
100
AcDbLine
 10
32.84084928890394
 20
16.78464927673337
 30
0.0
 11
32.84084928890394
 21
8.384649276733398
 31
0.0
  0
TEXT
  5
2B9
330
87
100
AcDbEntity
  8
AM_1
  6
Continuous
 62
     4
100
AcDbText
 10
-3.765350465559833
 20
35.02377307208121
 30
0.0
 40
5.880000114440917
  1
70CO00010
  7
TSTYLE10
 11
-3.765350465559833
 21
40.90377318652213
 31
0.0
100
AcDbText
 73
     3
  0
TEXT
  5
2BA
330
87
100
AcDbEntity
  8
AM_1
  6
Continuous
 62
     4
100
AcDbText
 10
-11.24497771791888
 20
28.71365816960202
 30
0.0
 40
1.889999985694885
  1
LE TOLLERANZE SI INTENDONO SU PEZZO
  7
TSTYLE11
 11
-11.24497771791888
 21
30.6036581552969
 31
0.0
100
AcDbText
 73
     3
  0
TEXT
  5
2BB
330
87
100
AcDbEntity
  8
AM_1
  6
Continuous
 62
     4
100
AcDbText
 10
-11.24497771791888
 20
25.62093089687483
 30
0.0
 40
1.889999985694885
  1
FINITO COMPL.DI TRATT. SUPERFICIALI
  7
TSTYLE11
 11
-11.24497771791888
 21
27.51093088256971
 31
0.0
100
AcDbText
 73
     3
  0
LINE
  5
2BC
330
87
100
AcDbEntity
  8
AM_1
  6
Continuous
 62
     4
100
AcDbLine
 10
-12.86868286132812
 20
47.7596492767334
 30
0.0
 11
55.38131713867187
 21
47.7596492767334
 31
0.0
  0
LINE
  5
2BD
330
87
100
AcDbEntity
  8
AM_1
  6
Continuous
 62
     4
100
AcDbLine
 10
25.9813171386719
 20
55.6346492767334
 30
0.0
 11
25.9813171386719
 21
71.38464927673339
 31
0.0
  0
LINE
  5
2BE
330
87
100
AcDbEntity
  8
AM_1
  6
Continuous
 62
     4
100
AcDbLine
 10
-12.86868286132812
 20
33.30448801486887
 30
0.0
 11
55.38131713867187
 21
33.30448801486887
 31
0.0
  0
LINE
  5
2BF
330
87
100
AcDbEntity
  8
AM_1
  6
Continuous
 62
     4
100
AcDbLine
 10
-12.86868286132812
 20
22.55964927673347
 30
0.0
 11
55.38131713867187
 21
22.55964927673347
 31
0.0
  0
HATCH
  5
2C0
330
87
100
AcDbEntity
  8
AM_2
  6
Continuous
 62
     4
100
AcDbHatch
 10
0.0
 20
0.0
 30
0.0
210
0.0
220
0.0
230
1.0
  2
ANSI31
 70
     0
 71
     0
 91
        1
 92
        1
 93
        6
 72
     1
 10
-101.4599137701905
 20
27.96093185312225
 11
-99.49493746681808
 21
27.96093185312225
 72
     1
 10
-105.9339981204652
 20
28.80093185312217
 11
-99.31976566893986
 21
28.80093185312217
 72
     1
 10
-105.5652726572759
 20
30.4389318531222
 11
-101.4290762702588
 21
30.4389318531222
 72
     2
 10
-103.4973933311337
 20
29.23386038772492
 40
4.200000000000017
 50
354.0835439994036
 51
702.357417533684
 73
     1
 72
     2
 10
-103.4973933311337
 20
29.44386038772496
 40
2.52000000000001
 50
194.7813103722751
 51
323.9519363800365
 73
     1
 72
     2
 10
-103.4971744637673
 20
29.54139930690508
 40
2.254461090707138
 50
23.46032899248911
 51
156.5396710075119
 73
     1
 97
        0
 75
     0
 76
     1
 52
0.0
 41
0.0330708651092109
 77
     0
 78
     1
 53
45.0
 43
0.0
 44
0.0
 45
-0.0742462097065108
 46
0.0742462097065109
 79
     0
 98
        1
 10
0.0
 20
0.0
  0
HATCH
  5
2C1
330
87
100
AcDbEntity
  8
AM_2
  6
Continuous
 62
     4
100
AcDbHatch
 10
0.0
 20
0.0
 30
0.0
210
0.0
220
0.0
230
1.0
  2
ANSI31
 70
     0
 71
     0
 91
        1
 92
        1
 93
        4
 72
     1
 10
-108.9573933311337
 20
25.03386038772499
 11
-108.9573933311337
 21
33.43386038772496
 72
     1
 10
-108.9573933311337
 20
33.43386038772496
 11
-110.8473933311337
 21
33.43386038772496
 72
     1
 10
-110.8473933311337
 20
33.43386038772496
 11
-110.8473933311337
 21
25.03386038772499
 72
     1
 10
-110.8473933311337
 20
25.03386038772499
 11
-108.9573933311337
 21
25.03386038772499
 97
        0
 75
     0
 76
     1
 52
0.0
 41
0.0330708651092109
 77
     0
 78
     1
 53
45.0
 43
0.0
 44
0.0
 45
-0.0742462097065108
 46
0.0742462097065109
 79
     0
 98
        1
 10
0.0
 20
0.0
  0
HATCH
  5
2C2
330
87
100
AcDbEntity
  8
AM_2
  6
Continuous
 62
     4
100
AcDbHatch
 10
0.0
 20
0.0
 30
0.0
210
0.0
220
0.0
230
1.0
  2
ANSI31
 70
     0
 71
     0
 91
        1
 92
        1
 93
       12
 72
     1
 10
-112.1089383789464
 20
29.23386038772492
 11
-112.1089383789464
 21
31.75386038772501
 72
     1
 10
-121.3489383789465
 20
25.03386038772499
 11
-116.3089383789464
 21
25.03386038772499
 72
     1
 10
-121.3489383789465
 20
35.95386038772494
 11
-121.3489383789465
 21
25.03386038772499
 72
     1
 10
-116.3089383789464
 20
35.95386038772494
 11
-121.3489383789465
 21
35.95386038772494
 72
     1
 10
-113.9989383789465
 20
29.65386038772499
 11
-113.9989383789465
 21
31.33386038772494
 72
     1
 10
-119.4589383789464
 20
26.92386038772497
 11
-116.7289383789464
 21
26.92386038772497
 72
     1
 10
-119.4589383789464
 20
34.06386038772496
 11
-119.4589383789464
 21
26.92386038772497
 72
     1
 10
-116.7289383789464
 20
34.06386038772496
 11
-119.4589383789464
 21
34.06386038772496
 72
     2
 10
-116.3089383789464
 20
31.75386038772501
 40
4.199999999999988
 50
0.0
 51
89.99999999999994
 73
     1
 72
     2
 10
-116.3089383789464
 20
29.23386038772492
 40
4.199999999999988
 50
269.9999999999998
 51
360.0
 73
     1
 72
     2
 10
-116.7289383789464
 20
31.33386038772494
 40
2.730000000000003
 50
0.0
 51
89.99999999999994
 73
     1
 72
     2
 10
-116.7289383789464
 20
29.65386038772499
 40
2.730000000000003
 50
269.9999999999998
 51
360.0
 73
     1
 97
        0
 75
     0
 76
     1
 52
0.0
 41
0.0330708651092109
 77
     0
 78
     1
 53
45.0
 43
0.0
 44
0.0
 45
-0.0742462097065108
 46
0.0742462097065109
 79
     0
 98
        1
 10
0.0
 20
0.0
  0
HATCH
  5
2C3
330
87
100
AcDbEntity
  8
AM_2
  6
Continuous
 62
     4
100
AcDbHatch
 10
0.0
 20
0.0
 30
0.0
210
0.0
220
0.0
230
1.0
  2
ANSI31
 70
     0
 71
     0
 91
        1
 92
        1
 93
        6
 72
     1
 10
-80.29191377019058
 20
27.96093185312225
 11
-78.32693746681812
 21
27.96093185312225
 72
     1
 10
-84.76599812046529
 20
28.80093185312217
 11
-78.1517656689399
 21
28.80093185312217
 72
     1
 10
-84.39727265727603
 20
30.4389318531222
 11
-80.26107627025885
 21
30.4389318531222
 72
     2
 10
-82.32939333113369
 20
29.23386038772492
 40
4.199999999999988
 50
354.0835439994036
 51
702.357417533684
 73
     1
 72
     2
 10
-82.32939333113369
 20
29.44386038772496
 40
2.519999999999953
 50
194.7813103722755
 51
323.9519363800365
 73
     1
 72
     2
 10
-82.32917446376744
 20
29.54139930690508
 40
2.254461090707167
 50
23.46032899248816
 51
156.5396710075116
 73
     1
 97
        0
 75
     0
 76
     1
 52
0.0
 41
0.0330708651092109
 77
     0
 78
     1
 53
45.0
 43
0.0
 44
0.0
 45
-0.0742462097065108
 46
0.0742462097065109
 79
     0
 98
        1
 10
0.0
 20
0.0
  0
HATCH
  5
2C4
330
87
100
AcDbEntity
  8
AM_2
  6
Continuous
 62
     4
100
AcDbHatch
 10
0.0
 20
0.0
 30
0.0
210
0.0
220
0.0
230
1.0
  2
ANSI31
 70
     0
 71
     0
 91
        1
 92
        1
 93
        4
 72
     1
 10
-126.0894867670623
 20
36.16729576230103
 11
-128.0456833830475
 21
34.14245090234181
 72
     2
 10
-132.8767752761388
 20
29.29355480889308
 40
9.659999999999996
 50
230.1466606583756
 51
405.3625857098742
 73
     1
 72
     2
 10
-133.6818816355342
 20
28.57365102014285
 40
7.923273494542144
 50
323.3529774062099
 51
404.6553684752088
 73
     1
 72
     2
 10
-134.3000617883856
 20
29.45309178282582
 40
8.950512538357997
 50
237.8184274609712
 51
321.1976420061425
 73
     1
 97
        0
 75
     0
 76
     1
 52
0.0
 41
0.0330708651092109
 77
     0
 78
     1
 53
45.0
 43
0.0
 44
0.0
 45
-0.0742462097065108
 46
0.0742462097065109
 79
     0
 98
        1
 10
0.0
 20
0.0
  0
HATCH
  5
2C5
330
87
100
AcDbEntity
  8
AM_2
  6
Continuous
 62
     4
100
AcDbHatch
 10
0.0
 20
0.0
 30
0.0
210
0.0
220
0.0
230
1.0
  2
ANSI31
 70
     0
 71
     0
 91
        1
 92
        1
 93
        3
 72
     1
 10
-129.7963555310607
 20
32.49475946891767
 11
-128.5949138608555
 21
33.79918185371173
 72
     2
 10
-132.6331110710162
 20
29.49106686163816
 40
5.904819344660666
 50
227.8543072058527
 51
406.852286526364
 73
     1
 72
     2
 10
-133.4373679865605
 20
29.0263231117533
 40
5.028620334127936
 50
231.0971291909961
 51
403.609464541219
 73
     1
 97
        0
 75
     0
 76
     1
 52
0.0
 41
0.0330708651092109
 77
     0
 78
     1
 53
45.0
 43
0.0
 44
0.0
 45
-0.0742462097065108
 46
0.0742462097065109
 79
     0
 98
        1
 10
0.0
 20
0.0
  0
HATCH
  5
2C6
330
87
100
AcDbEntity
  8
AM_2
  6
Continuous
 62
     4
100
AcDbHatch
 10
0.0
 20
0.0
 30
0.0
210
0.0
220
0.0
230
1.0
  2
ANSI31
 70
     0
 71
     0
 91
        1
 92
        1
 93
        5
 72
     1
 10
-137.7258705544146
 20
24.94284039905676
 11
-139.892155052951
 21
22.65276821488976
 72
     2
 10
-132.8767752761388
 20
29.29355480889308
 40
9.659999999999996
 50
49.8261009425247
 51
223.4287517252032
 73
     1
 72
     2
 10
-133.0310306151145
 20
30.16191511103068
 40
7.019990235378756
 50
171.3036725542734
 51
228.0269063594534
 73
     1
 72
     2
 10
-133.0817640361757
 20
31.05635242705012
 40
6.890575272957633
 50
125.3768514667862
 51
178.6115147484631
 73
     1
 72
     2
 10
-131.8580453976787
 20
29.3329388432569
 40
9.004254928678435
 50
54.62314853321371
 51
125.3768514667839
 73
     1
 97
        0
 75
     0
 76
     1
 52
0.0
 41
0.0330708651092109
 77
     0
 78
     1
 53
45.0
 43
0.0
 44
0.0
 45
-0.0742462097065108
 46
0.0742462097065109
 79
     0
 98
        1
 10
0.0
 20
0.0
  0
HATCH
  5
2C7
330
87
100
AcDbEntity
  8
AM_2
  6
Continuous
 62
     4
100
AcDbHatch
 10
0.0
 20
0.0
 30
0.0
210
0.0
220
0.0
230
1.0
  2
ANSI31
 70
     0
 71
     0
 91
        1
 92
        1
 93
        3
 72
     1
 10
-135.7692369772234
 20
26.76216635679589
 11
-136.9706786474286
 21
25.45774397200182
 72
     2
 10
-132.9324814372679
 20
29.76585896407539
 40
5.904819344660666
 50
47.85430720585243
 51
226.8522865263638
 73
     1
 72
     2
 10
-132.1282245217236
 20
30.23060271396025
 40
5.028620334127936
 50
51.09712919099617
 51
223.60946454122
 73
     1
 97
        0
 75
     0
 76
     1
 52
0.0
 41
0.0330708651092109
 77
     0
 78
     1
 53
45.0
 43
0.0
 44
0.0
 45
-0.0742462097065108
 46
0.0742462097065109
 79
     0
 98
        1
 10
0.0
 20
0.0
  0
LINE
  5
2C8
330
87
100
AcDbEntity
  8
AM_2
  6
Continuous
 62
     4
100
AcDbLine
 10
-98.45739333113369
 20
33.43386038772496
 30
0.0
 11
-98.45739333113369
 21
25.03386038772499
 31
0.0
  0
LINE
  5
2C9
330
87
100
AcDbEntity
  8
AM_2
  6
Continuous
 62
     4
100
AcDbLine
 10
-98.45739333113369
 20
33.43386038772496
 30
0.0
 11
-96.56739333113371
 21
33.43386038772496
 31
0.0
  0
LINE
  5
2CA
330
87
100
AcDbEntity
  8
AM_2
  6
Continuous
 62
     4
100
AcDbLine
 10
-98.45739333113369
 20
25.03386038772499
 30
0.0
 11
-96.56739333113371
 21
25.03386038772499
 31
0.0
  0
LINE
  5
2CB
330
87
100
AcDbEntity
  8
AM_2
  6
Continuous
 62
     4
100
AcDbLine
 10
-96.56739333113371
 20
33.43386038772496
 30
0.0
 11
-96.56739333113371
 21
31.7538603877249
 31
0.0
  0
LINE
  5
2CC
330
87
100
AcDbEntity
  8
AM_2
  6
Continuous
 62
     4
100
AcDbLine
 10
-96.56739333113371
 20
30.07386038772495
 30
0.0
 11
-96.56739333113371
 21
25.03386038772499
 31
0.0
  0
HATCH
  5
2CD
330
87
100
AcDbEntity
  8
AM_2
  6
Continuous
 62
     4
100
AcDbHatch
 10
0.0
 20
0.0
 30
0.0
210
0.0
220
0.0
230
1.0
  2
ANSI31
 70
     0
 71
     0
 91
        1
 92
        1
 93
        9
 72
     1
 10
-96.56739333113371
 20
33.43386038772496
 11
-96.56739333113371
 21
31.7538603877249
 72
     1
 10
-98.45739333113369
 20
33.43386038772496
 11
-96.56739333113371
 21
33.43386038772496
 72
     1
 10
-98.45739333113369
 20
33.43386038772496
 11
-98.45739333113369
 21
25.03386038772499
 72
     1
 10
-98.45739333113369
 20
25.03386038772499
 11
-96.56739333113371
 21
25.03386038772499
 72
     1
 10
-96.56739333113371
 20
30.07386038772495
 11
-96.56739333113371
 21
25.03386038772499
 72
     1
 10
-93.3232469143866
 20
31.7538603877249
 11
-93.3232469143866
 21
33.43386038772496
 72
     1
 10
-94.10846284387018
 20
33.43386038772496
 11
-93.3232469143866
 21
33.43386038772496
 72
     2
 10
-93.91593172256571
 20
30.5125566886062
 40
2.927641292090925
 50
93.77067625261942
 51
154.9129671807307
 73
     1
 72
     2
 10
-93.32483671833534
 20
27.7846428699495
 40
3.969217836160197
 50
89.97705113130264
 51
144.7782320142483
 73
     1
 97
        0
 75
     0
 76
     1
 52
0.0
 41
0.0330708651092109
 77
     0
 78
     1
 53
45.0
 43
0.0
 44
0.0
 45
-0.0742462097065108
 46
0.0742462097065109
 79
     0
 98
        1
 10
0.0
 20
0.0
  0
ARC
  5
2CE
330
87
100
AcDbEntity
  8
AM_2
  6
Continuous
 62
     4
100
AcDbCircle
 10
-86.93243671833533
 20
27.7846428699495
 30
0.0
 40
3.969217836160197
100
AcDbArc
 50
89.97705113130264
 51
144.7782320142476
  0
LINE
  5
2CF
330
87
100
AcDbEntity
  8
AM_2
  6
Continuous
 62
     4
100
AcDbLine
 10
-86.93084691438659
 20
31.7538603877249
 30
0.0
 11
-86.93084691438659
 21
33.43386038772496
 31
0.0
  0
LINE
  5
2D0
330
87
100
AcDbEntity
  8
AM_2
  6
Continuous
 62
     4
100
AcDbLine
 10
-87.71606284387017
 20
33.43386038772496
 30
0.0
 11
-86.93084691438659
 21
33.43386038772496
 31
0.0
  0
ARC
  5
2D1
330
87
100
AcDbEntity
  8
AM_2
  6
Continuous
 62
     4
100
AcDbCircle
 10
-87.52353172256571
 20
30.5125566886062
 30
0.0
 40
2.927641292090925
100
AcDbArc
 50
93.77067625261942
 51
154.9129671807307
  0
LINE
  5
2D2
330
87
100
AcDbEntity
  8
AM_2
  6
Continuous
 62
     4
100
AcDbLine
 10
-92.06499333113368
 20
33.43386038772496
 30
0.0
 11
-92.06499333113368
 21
25.03386038772499
 31
0.0
  0
LINE
  5
2D3
330
87
100
AcDbEntity
  8
AM_2
  6
Continuous
 62
     4
100
AcDbLine
 10
-92.06499333113368
 20
33.43386038772496
 30
0.0
 11
-90.17499333113368
 21
33.43386038772496
 31
0.0
  0
LINE
  5
2D4
330
87
100
AcDbEntity
  8
AM_2
  6
Continuous
 62
     4
100
AcDbLine
 10
-92.06499333113368
 20
25.03386038772499
 30
0.0
 11
-90.17499333113368
 21
25.03386038772499
 31
0.0
  0
LINE
  5
2D5
330
87
100
AcDbEntity
  8
AM_2
  6
Continuous
 62
     4
100
AcDbLine
 10
-90.17499333113368
 20
33.43386038772496
 30
0.0
 11
-90.17499333113368
 21
31.7538603877249
 31
0.0
  0
LINE
  5
2D6
330
87
100
AcDbEntity
  8
AM_2
  6
Continuous
 62
     4
100
AcDbLine
 10
-90.17499333113368
 20
30.07386038772495
 30
0.0
 11
-90.17499333113368
 21
25.03386038772499
 31
0.0
  0
HATCH
  5
2D7
330
87
100
AcDbEntity
  8
AM_2
  6
Continuous
 62
     4
100
AcDbHatch
 10
0.0
 20
0.0
 30
0.0
210
0.0
220
0.0
230
1.0
  2
ANSI31
 70
     0
 71
     0
 91
        1
 92
        1
 93
        9
 72
     1
 10
-90.17499333113368
 20
33.43386038772496
 11
-90.17499333113368
 21
31.7538603877249
 72
     1
 10
-92.06499333113368
 20
33.43386038772496
 11
-90.17499333113368
 21
33.43386038772496
 72
     1
 10
-92.06499333113368
 20
33.43386038772496
 11
-92.06499333113368
 21
25.03386038772499
 72
     1
 10
-92.06499333113368
 20
25.03386038772499
 11
-90.17499333113368
 21
25.03386038772499
 72
     1
 10
-90.17499333113368
 20
30.07386038772495
 11
-90.17499333113368
 21
25.03386038772499
 72
     1
 10
-86.93084691438659
 20
31.7538603877249
 11
-86.93084691438659
 21
33.43386038772496
 72
     1
 10
-87.71606284387017
 20
33.43386038772496
 11
-86.93084691438659
 21
33.43386038772496
 72
     2
 10
-87.52353172256571
 20
30.5125566886062
 40
2.927641292090925
 50
93.77067625261942
 51
154.9129671807307
 73
     1
 72
     2
 10
-86.93243671833533
 20
27.7846428699495
 40
3.969217836160197
 50
89.97705113130264
 51
144.7782320142483
 73
     1
 97
        0
 75
     0
 76
     1
 52
0.0
 41
0.0330708651092109
 77
     0
 78
     1
 53
45.0
 43
0.0
 44
0.0
 45
-0.0742462097065108
 46
0.0742462097065109
 79
     0
 98
        1
 10
0.0
 20
0.0
  0
LINE
  5
2D8
330
87
100
AcDbEntity
  8
AM_2
  6
Continuous
 62
     4
100
AcDbLine
 10
-110.8509583775646
 20
34.10166401021093
 30
0.0
 11
-108.9585839573986
 21
34.10166401021093
 31
0.0
  0
LINE
  5
2D9
330
87
100
AcDbEntity
  8
AM_2
  6
Continuous
 62
     4
100
AcDbLine
 10
-108.9585839573986
 20
34.10166401021093
 30
0.0
 11
-108.9585839573986
 21
35.83922046773046
 31
0.0
  0
LINE
  5
2DA
330
87
100
AcDbEntity
  8
AM_2
  6
Continuous
 62
     4
100
AcDbLine
 10
-108.9585839573986
 20
35.83922046773046
 30
0.0
 11
-110.8509583775646
 21
35.83922046773046
 31
0.0
  0
LINE
  5
2DB
330
87
100
AcDbEntity
  8
AM_2
  6
Continuous
 62
     4
100
AcDbLine
 10
-110.8509583775646
 20
35.83922046773046
 30
0.0
 11
-110.8509583775646
 21
34.10166401021093
 31
0.0
  0
LINE
  5
2DC
330
87
100
AcDbEntity
  8
AM_2
  6
Continuous
 62
     4
100
AcDbLine
 10
-110.7459583775646
 20
34.10166401021093
 30
0.0
 11
-110.7459583775646
 21
35.83922046773046
 31
0.0
  0
LINE
  5
2DD
330
87
100
AcDbEntity
  8
AM_2
  6
Continuous
 62
     4
100
AcDbLine
 10
-110.6409583775646
 20
34.10166401021093
 30
0.0
 11
-110.6409583775646
 21
35.83922046773046
 31
0.0
  0
LINE
  5
2DE
330
87
100
AcDbEntity
  8
AM_2
  6
Continuous
 62
     4
100
AcDbLine
 10
-110.5359583775646
 20
34.10166401021093
 30
0.0
 11
-110.5359583775646
 21
35.83922046773046
 31
0.0
  0
LINE
  5
2DF
330
87
100
AcDbEntity
  8
AM_2
  6
Continuous
 62
     4
100
AcDbLine
 10
-110.4309583775646
 20
34.10166401021093
 30
0.0
 11
-110.4309583775646
 21
35.83922046773046
 31
0.0
  0
LINE
  5
2E0
330
87
100
AcDbEntity
  8
AM_2
  6
Continuous
 62
     4
100
AcDbLine
 10
-110.3259583775646
 20
34.10166401021093
 30
0.0
 11
-110.3259583775646
 21
35.83922046773046
 31
0.0
  0
LINE
  5
2E1
330
87
100
AcDbEntity
  8
AM_2
  6
Continuous
 62
     4
100
AcDbLine
 10
-110.2209583775646
 20
34.10166401021093
 30
0.0
 11
-110.2209583775646
 21
35.83922046773046
 31
0.0
  0
LINE
  5
2E2
330
87
100
AcDbEntity
  8
AM_2
  6
Continuous
 62
     4
100
AcDbLine
 10
-110.1159583775646
 20
34.10166401021093
 30
0.0
 11
-110.1159583775646
 21
35.83922046773046
 31
0.0
  0
LINE
  5
2E3
330
87
100
AcDbEntity
  8
AM_2
  6
Continuous
 62
     4
100
AcDbLine
 10
-110.0109583775646
 20
34.10166401021093
 30
0.0
 11
-110.0109583775646
 21
35.83922046773046
 31
0.0
  0
LINE
  5
2E4
330
87
100
AcDbEntity
  8
AM_2
  6
Continuous
 62
     4
100
AcDbLine
 10
-109.9059583775646
 20
34.10166401021093
 30
0.0
 11
-109.9059583775646
 21
35.83922046773046
 31
0.0
  0
LINE
  5
2E5
330
87
100
AcDbEntity
  8
AM_2
  6
Continuous
 62
     4
100
AcDbLine
 10
-109.8009583775646
 20
34.10166401021093
 30
0.0
 11
-109.8009583775646
 21
35.83922046773046
 31
0.0
  0
LINE
  5
2E6
330
87
100
AcDbEntity
  8
AM_2
  6
Continuous
 62
     4
100
AcDbLine
 10
-109.6959583775646
 20
34.10166401021093
 30
0.0
 11
-109.6959583775646
 21
35.83922046773046
 31
0.0
  0
LINE
  5
2E7
330
87
100
AcDbEntity
  8
AM_2
  6
Continuous
 62
     4
100
AcDbLine
 10
-109.5909583775646
 20
34.10166401021093
 30
0.0
 11
-109.5909583775646
 21
35.83922046773046
 31
0.0
  0
LINE
  5
2E8
330
87
100
AcDbEntity
  8
AM_2
  6
Continuous
 62
     4
100
AcDbLine
 10
-109.4859583775646
 20
34.10166401021093
 30
0.0
 11
-109.4859583775646
 21
35.83922046773046
 31
0.0
  0
LINE
  5
2E9
330
87
100
AcDbEntity
  8
AM_2
  6
Continuous
 62
     4
100
AcDbLine
 10
-109.3809583775645
 20
34.10166401021093
 30
0.0
 11
-109.3809583775645
 21
35.83922046773046
 31
0.0
  0
LINE
  5
2EA
330
87
100
AcDbEntity
  8
AM_2
  6
Continuous
 62
     4
100
AcDbLine
 10
-109.2759583775645
 20
34.10166401021093
 30
0.0
 11
-109.2759583775645
 21
35.83922046773046
 31
0.0
  0
LINE
  5
2EB
330
87
100
AcDbEntity
  8
AM_2
  6
Continuous
 62
     4
100
AcDbLine
 10
-109.1709583775645
 20
34.10166401021093
 30
0.0
 11
-109.1709583775645
 21
35.83922046773046
 31
0.0
  0
LINE
  5
2EC
330
87
100
AcDbEntity
  8
AM_2
  6
Continuous
 62
     4
100
AcDbLine
 10
-109.0659583775645
 20
34.10166401021093
 30
0.0
 11
-109.0659583775645
 21
35.83922046773046
 31
0.0
  0
LINE
  5
2ED
330
87
100
AcDbEntity
  8
AM_0
  6
Continuous
 62
     3
100
AcDbLine
 10
-104.4942486493238
 20
12.62828661076617
 30
0.0
 11
-102.6368267743238
 21
9.408071767016167
 31
0.0
  0
LINE
  5
2EE
330
87
100
AcDbEntity
  8
AM_0
  6
Continuous
 62
     3
100
AcDbLine
 10
-104.4942486493238
 20
12.62828661076617
 30
0.0
 11
-100.7794048993202
 21
12.62828661076617
 31
0.0
  0
LINE
  5
2EF
330
87
100
AcDbEntity
  8
AM_0
  6
Continuous
 62
     3
100
AcDbLine
 10
-100.7794048993238
 20
12.62828661076617
 30
0.0
 11
-102.6368267743238
 21
9.408071767016167
 31
0.0
  0
LINE
  5
2F0
330
87
100
AcDbEntity
  8
AM_0
  6
Continuous
 62
     3
100
AcDbLine
 10
-88.72178771182381
 20
12.59679247014117
 30
0.0
 11
-86.86436583682382
 21
9.376577626391167
 31
0.0
  0
LINE
  5
2F1
330
87
100
AcDbEntity
  8
AM_0
  6
Continuous
 62
     3
100
AcDbLine
 10
-83.05167551383068
 20
15.98664405124089
 30
0.0
 11
-86.86436583682382
 21
9.376577626391167
 31
0.0
  0
LINE
  5
2F2
330
87
100
AcDbEntity
  8
AM_0
  6
Continuous
 62
     3
100
AcDbLine
 10
-88.72178771182381
 20
12.59679247014117
 30
0.0
 11
-86.86436583682382
 21
9.376577626391167
 31
0.0
  0
LINE
  5
2F3
330
87
100
AcDbEntity
  8
AM_0
  6
Continuous
 62
     3
100
AcDbLine
 10
-85.00694396182382
 20
12.59679247014117
 30
0.0
 11
-86.86436583682382
 21
9.376577626391167
 31
0.0
  0
TEXT
  5
2F4
330
87
100
AcDbEntity
  8
AM_0
  6
Continuous
 62
     3
100
AcDbText
 10
-89.16807677432382
 20
13.56236864201617
 30
0.0
 40
1.799999952316284
  1
6,3
 41
0.8
  7
TSTYLE12
100
AcDbText
  0
LINE
  5
2F5
330
87
100
AcDbEntity
  8
AM_0
  6
Continuous
 62
     3
100
AcDbLine
 10
-50.5016755138314
 20
15.98664405124089
 30
0.0
 11
-54.31436583682454
 21
9.376577626391167
 31
0.0
  0
TEXT
  5
2F6
330
87
100
AcDbEntity
  8
AM_0
  6
Continuous
 62
     3
100
AcDbText
 10
-56.61807677432455
 20
13.56236864201617
 30
0.0
 40
1.799999952316284
  1
1,6
 41
0.8
  7
TSTYLE12
100
AcDbText
  0
LINE
  5
2F7
330
87
100
AcDbEntity
  8
AM_0
  6
Continuous
 62
     3
100
AcDbLine
 10
-56.17178771182455
 20
12.59679247014117
 30
0.0
 11
-54.31436583682454
 21
9.376577626391167
 31
0.0
  0
LINE
  5
2F8
330
87
100
AcDbEntity
  8
AM_0
  6
Continuous
 62
     3
100
AcDbLine
 10
-71.94424864932455
 20
12.62828661076617
 30
0.0
 11
-70.08682677432455
 21
9.408071767016167
 31
0.0
  0
LINE
  5
2F9
330
87
100
AcDbEntity
  8
AM_0
  6
Continuous
 62
     3
100
AcDbLine
 10
-68.22940489932455
 20
12.62828661076617
 30
0.0
 11
-70.08682677432455
 21
9.408071767016167
 31
0.0
  0
LINE
  5
2FA
330
87
100
AcDbEntity
  8
AM_0
  6
Continuous
 62
     3
100
AcDbLine
 10
-71.94424864932455
 20
12.62828661076617
 30
0.0
 11
-68.22940489932091
 21
12.62828661076617
 31
0.0
  0
LINE
  5
2FB
330
87
100
AcDbEntity
  8
AM_0
  6
Continuous
 62
     3
100
AcDbLine
 10
-64.51456114931727
 20
12.62828661076617
 30
0.0
 11
-66.37198302431727
 21
9.408071767016167
 31
0.0
  0
LINE
  5
2FC
330
87
100
AcDbEntity
  8
AM_0
  6
Continuous
 62
     3
100
AcDbLine
 10
-68.22940489931728
 20
12.62828661076617
 30
0.0
 11
-66.37198302431727
 21
9.408071767016167
 31
0.0
  0
LINE
  5
2FD
330
87
100
AcDbEntity
  8
AM_0
  6
Continuous
 62
     3
100
AcDbLine
 10
-64.51456114931727
 20
12.62828661076617
 30
0.0
 11
-68.22940489932091
 21
12.62828661076617
 31
0.0
  0
LINE
  5
2FE
330
87
100
AcDbEntity
  8
AM_0
  6
Continuous
 62
     3
100
AcDbLine
 10
-17.95167551383213
 20
15.98664405124089
 30
0.0
 11
-21.76436583682528
 21
9.376577626391167
 31
0.0
  0
TEXT
  5
2FF
330
87
100
AcDbEntity
  8
AM_0
  6
Continuous
 62
     3
100
AcDbText
 10
-24.06807677432528
 20
13.56236864201617
 30
0.0
 40
1.799999952316284
  1
0,8
 41
0.8
  7
TSTYLE12
100
AcDbText
  0
LINE
  5
300
330
87
100
AcDbEntity
  8
AM_0
  6
Continuous
 62
     3
100
AcDbLine
 10
-23.62178771182528
 20
12.59679247014117
 30
0.0
 11
-21.76436583682528
 21
9.376577626391167
 31
0.0
  0
LINE
  5
301
330
87
100
AcDbEntity
  8
AM_0
  6
Continuous
 62
     3
100
AcDbLine
 10
-39.39424864932528
 20
12.62828661076617
 30
0.0
 11
-37.53682677432528
 21
9.408071767016167
 31
0.0
  0
LINE
  5
302
330
87
100
AcDbEntity
  8
AM_0
  6
Continuous
 62
     3
100
AcDbLine
 10
-35.67940489932528
 20
12.62828661076617
 30
0.0
 11
-37.53682677432528
 21
9.408071767016167
 31
0.0
  0
LINE
  5
303
330
87
100
AcDbEntity
  8
AM_0
  6
Continuous
 62
     3
100
AcDbLine
 10
-39.39424864932528
 20
12.62828661076617
 30
0.0
 11
-35.67940489932164
 21
12.62828661076617
 31
0.0
  0
LINE
  5
304
330
87
100
AcDbEntity
  8
AM_0
  6
Continuous
 62
     3
100
AcDbLine
 10
-31.964561149318
 20
12.62828661076617
 30
0.0
 11
-33.821983024318
 21
9.408071767016167
 31
0.0
  0
LINE
  5
305
330
87
100
AcDbEntity
  8
AM_0
  6
Continuous
 62
     3
100
AcDbLine
 10
-35.679404899318
 20
12.62828661076617
 30
0.0
 11
-33.821983024318
 21
9.408071767016167
 31
0.0
  0
LINE
  5
306
330
87
100
AcDbEntity
  8
AM_0
  6
Continuous
 62
     3
100
AcDbLine
 10
-31.964561149318
 20
12.62828661076617
 30
0.0
 11
-35.67940489932164
 21
12.62828661076617
 31
0.0
  0
LINE
  5
307
330
87
100
AcDbEntity
  8
AM_0
  6
Continuous
 62
     3
100
AcDbLine
 10
-31.964561149318
 20
12.62828661076617
 30
0.0
 11
-28.24971739931437
 21
12.62828661076617
 31
0.0
  0
LINE
  5
308
330
87
100
AcDbEntity
  8
AM_0
  6
Continuous
 62
     3
100
AcDbLine
 10
-28.249717399318
 20
12.62828661076617
 30
0.0
 11
-30.107139274318
 21
9.408071767016167
 31
0.0
  0
LINE
  5
309
330
87
100
AcDbEntity
  8
AM_0
  6
Continuous
 62
     3
100
AcDbLine
 10
-31.964561149318
 20
12.62828661076617
 30
0.0
 11
-30.107139274318
 21
9.408071767016167
 31
0.0
  0
TEXT
  5
30A
330
87
100
AcDbEntity
  8
AM_0
  6
Continuous
 62
     3
100
AcDbText
 10
-119.8372173993231
 20
13.43736864201616
 30
0.0
 40
1.799999952316284
  1
0
 41
0.8
  7
TSTYLE12
100
AcDbText
  0
LINE
  5
30B
330
87
100
AcDbEntity
  8
AM_0
  6
Continuous
 62
     3
100
AcDbLine
 10
-117.5569439618231
 20
12.59679247014117
 30
0.0
 11
-119.4143658368231
 21
9.376577626391167
 31
0.0
  0
LINE
  5
30C
330
87
100
AcDbEntity
  8
AM_0
  6
Continuous
 62
     3
100
AcDbLine
 10
-121.2717877118231
 20
12.59679247014117
 30
0.0
 11
-119.4143658368231
 21
9.376577626391167
 31
0.0
  0
LINE
  5
30D
330
87
100
AcDbEntity
  8
AM_0
  6
Continuous
 62
     3
100
AcDbLine
 10
-115.6016755138299
 20
15.98664405124089
 30
0.0
 11
-119.4143658368231
 21
9.376577626391167
 31
0.0
  0
ARC
  5
30E
330
87
100
AcDbEntity
  8
AM_0
  6
Continuous
 62
     3
100
AcDbCircle
 10
-136.7545197024666
 20
10.6879527117029
 30
0.0
 40
1.6015625
100
AcDbArc
 50
44.3983178607854
 51
206.9282795558678
  0
ARC
  5
30F
330
87
100
AcDbEntity
  8
AM_0
  6
Continuous
 62
     3
100
AcDbCircle
 10
-133.2032330243238
 20
11.63951707951617
 30
0.0
 40
1.6015625
100
AcDbArc
 50
224.3983178610141
 51
14.99999955309509
  0
LINE
  5
310
330
87
100
AcDbEntity
  8
AM_0
  6
Continuous
 62
     3
100
AcDbLine
 10
-135.6429660343093
 20
11.84192076901434
 30
0.0
 11
-134.3475385730127
 21
10.51899610575253
 31
0.0
  0
LINE
  5
311
330
87
100
AcDbEntity
  8
AM_1
  6
Continuous
 62
     3
100
AcDbLine
 10
-149.3686828613282
 20
294.8846492767334
 30
0.0
 11
-149.3686828613282
 21
-2.115350723266602
 31
0.0
  0
LINE
  5
312
330
87
100
AcDbEntity
  8
AM_1
  6
Continuous
 62
     3
100
AcDbLine
 10
-149.3686828613282
 20
-2.115350723266602
 30
0.0
 11
60.63131713867187
 21
-2.115350723266601
 31
0.0
  0
LINE
  5
313
330
87
100
AcDbEntity
  8
AM_1
  6
Continuous
 62
     3
100
AcDbLine
 10
60.63131713867187
 20
-2.115350723266601
 30
0.0
 11
60.63131713867187
 21
294.8846492767334
 31
0.0
  0
LINE
  5
314
330
87
100
AcDbEntity
  8
AM_1
  6
Continuous
 62
     3
100
AcDbLine
 10
60.63131713867187
 20
294.8846492767334
 30
0.0
 11
-149.3686828613282
 21
294.8846492767334
 31
0.0
  0
LINE
  5
315
330
87
100
AcDbEntity
  8
AM_1
  6
Continuous
 62
     7
100
AcDbLine
 10
-144.1186828613282
 20
289.6346492767334
 30
0.0
 11
-144.1186828613282
 21
3.134649276733397
 31
0.0
  0
LINE
  5
316
330
87
100
AcDbEntity
  8
AM_1
  6
Continuous
 62
     7
100
AcDbLine
 10
-144.1186828613282
 20
3.134649276733397
 30
0.0
 11
55.38131713867187
 21
3.134649276733398
 31
0.0
  0
LINE
  5
317
330
87
100
AcDbEntity
  8
AM_1
  6
Continuous
 62
     7
100
AcDbLine
 10
55.38131713867187
 20
3.134649276733398
 30
0.0
 11
55.38131713867187
 21
289.6346492767334
 31
0.0
  0
LINE
  5
318
330
87
100
AcDbEntity
  8
AM_1
  6
Continuous
 62
     7
100
AcDbLine
 10
55.38131713867187
 20
289.6346492767334
 30
0.0
 11
-144.1186828613282
 21
289.6346492767334
 31
0.0
  0
LINE
  5
319
330
87
100
AcDbEntity
  8
54
  6
Continuous
 62
     7
100
AcDbLine
 10
-144.1186828613282
 20
93.95964927673333
 30
0.0
 11
-144.1186828613282
 21
3.134649276733398
 31
0.0
  0
ENDBLK
  5
31A
330
87
100
AcDbEntity
  8
0
100
AcDbBlockEnd
  0
BLOCK
  5
31B
330
88
100
AcDbEntity
  8
0
100
AcDbBlockBegin
  2
*D80
 70
     1
 10
0.0
 20
0.0
 30
0.0
  3
*D80
  1

  0
LINE
  5
31C
330
88
100
AcDbEntity
  8
AM_0
  6
Continuous
 62
     3
100
AcDbLine
 10
-79.92740856757674
 20
154.1357421875
 30
0.0
 11
-111.267567672803
 21
154.1357421875
 31
0.0
  0
LINE
  5
31D
330
88
100
AcDbEntity
  8
AM_0
  6
Continuous
 62
     3
100
AcDbLine
 10
-110.1009010061363
 20
154.1357421875
 30
0.0
 11
-110.6409010061363
 21
157.1357421875
 31
0.0
  0
LINE
  5
31E
330
88
100
AcDbEntity
  8
AM_0
  6
Continuous
 62
     3
100
AcDbLine
 10
-110.6409010061363
 20
157.1357421875
 30
0.0
 11
-109.5609010061363
 21
157.1357421875
 31
0.0
  0
LINE
  5
31F
330
88
100
AcDbEntity
  8
AM_0
  6
Continuous
 62
     3
100
AcDbLine
 10
-109.5609010061363
 20
157.1357421875
 30
0.0
 11
-110.1009010061363
 21
154.1357421875
 31
0.0
  0
LINE
  5
320
330
88
100
AcDbEntity
  8
AM_0
  6
Continuous
 62
     3
100
AcDbLine
 10
-110.1009010061363
 20
151.6357421875
 30
0.0
 11
-109.5609010061363
 21
148.6357421875
 31
0.0
  0
LINE
  5
321
330
88
100
AcDbEntity
  8
AM_0
  6
Continuous
 62
     3
100
AcDbLine
 10
-109.5609010061363
 20
148.6357421875
 30
0.0
 11
-110.6409010061363
 21
148.6357421875
 31
0.0
  0
LINE
  5
322
330
88
100
AcDbEntity
  8
AM_0
  6
Continuous
 62
     3
100
AcDbLine
 10
-110.6409010061363
 20
148.6357421875
 30
0.0
 11
-110.1009010061363
 21
151.6357421875
 31
0.0
  0
LINE
  5
323
330
88
100
AcDbEntity
  8
AM_0
  6
Continuous
 62
     3
100
AcDbLine
 10
-110.1009010061363
 20
158.6357421875
 30
0.0
 11
-110.1009010061363
 21
154.1357421875
 31
0.0
  0
LINE
  5
324
330
88
100
AcDbEntity
  8
AM_0
  6
Continuous
 62
     3
100
AcDbLine
 10
-110.1009010061363
 20
154.1357421875
 30
0.0
 11
-110.1009010061363
 21
151.6357421875
 31
0.0
  0
LINE
  5
325
330
88
100
AcDbEntity
  8
AM_0
  6
Continuous
 62
     3
100
AcDbLine
 10
-110.1009010061363
 20
151.6357421875
 30
0.0
 11
-110.1009010061363
 21
134.3024012247721
 31
0.0
  0
TEXT
  5
326
330
88
100
AcDbEntity
  8
AM_0
  6
Continuous
 62
     4
100
AcDbText
 10
-111.2675675561362
 20
137.9190732573727
 30
0.0
 40
3.5
  1
2.5
 50
90.0
 41
0.8
  7
TSTYLE13
 72
     1
 11
-113.0175675561363
 21
140.7190732573727
 31
0.0
100
AcDbText
 73
     2
  0
LINE
  5
327
330
88
100
AcDbEntity
  8
AM_0
  6
Continuous
 62
     3
100
AcDbLine
 10
-78.92740862137312
 20
151.6357421875
 30
0.0
 11
-111.267567672803
 21
151.6357421875
 31
0.0
  0
POINT
  5
328
330
88
100
AcDbEntity
  8
DEFPOINTS
 62
     3
100
AcDbPoint
 10
-74.92740857449572
 20
154.1357421875
 30
0.0
  0
POINT
  5
329
330
88
100
AcDbEntity
  8
DEFPOINTS
 62
     3
100
AcDbPoint
 10
-74.92740857449572
 20
151.6357421875
 30
0.0
  0
POINT
  5
32A
330
88
100
AcDbEntity
  8
DEFPOINTS
 62
     3
100
AcDbPoint
 10
-110.1009010061363
 20
151.6357421875
 30
0.0
  0
ENDBLK
  5
32B
330
88
100
AcDbEntity
  8
0
100
AcDbBlockEnd
  0
BLOCK
  5
32C
330
89
100
AcDbEntity
  8
0
100
AcDbBlockBegin
  2
*D81
 70
     1
 10
0.0
 20
0.0
 30
0.0
  3
*D81
  1

  0
LINE
  5
32D
330
89
100
AcDbEntity
  8
AM_0
  6
Continuous
 62
     3
100
AcDbLine
 10
-74.92741357449563
 20
222.4502078293018
 30
0.0
 11
-74.92741357449563
 21
264.688167358209
 31
0.0
  0
LINE
  5
32E
330
89
100
AcDbEntity
  8
AM_0
  6
Continuous
 62
     3
100
AcDbLine
 10
-74.92741357449563
 20
263.5215006915423
 30
0.0
 11
-71.92741357449563
 21
264.0615006915423
 31
0.0
  0
LINE
  5
32F
330
89
100
AcDbEntity
  8
AM_0
  6
Continuous
 62
     3
100
AcDbLine
 10
-71.92741357449563
 20
264.0615006915423
 30
0.0
 11
-71.92741357449563
 21
262.9815006915423
 31
0.0
  0
LINE
  5
330
330
89
100
AcDbEntity
  8
AM_0
  6
Continuous
 62
     3
100
AcDbLine
 10
-71.92741357449563
 20
262.9815006915423
 30
0.0
 11
-74.92741357449563
 21
263.5215006915423
 31
0.0
  0
LINE
  5
331
330
89
100
AcDbEntity
  8
AM_0
  6
Continuous
 62
     3
100
AcDbLine
 10
-14.92741391645529
 20
263.5215006915423
 30
0.0
 11
-17.92741391645529
 21
262.9815006915423
 31
0.0
  0
LINE
  5
332
330
89
100
AcDbEntity
  8
AM_0
  6
Continuous
 62
     3
100
AcDbLine
 10
-17.92741391645529
 20
262.9815006915423
 30
0.0
 11
-17.92741391645529
 21
264.0615006915423
 31
0.0
  0
LINE
  5
333
330
89
100
AcDbEntity
  8
AM_0
  6
Continuous
 62
     3
100
AcDbLine
 10
-17.92741391645529
 20
264.0615006915423
 30
0.0
 11
-14.92741391645529
 21
263.5215006915423
 31
0.0
  0
LINE
  5
334
330
89
100
AcDbEntity
  8
AM_0
  6
Continuous
 62
     3
100
AcDbLine
 10
-74.92741357449563
 20
263.5215006915423
 30
0.0
 11
-14.92741391645529
 21
263.5215006915423
 31
0.0
  0
TEXT
  5
335
330
89
100
AcDbEntity
  8
AM_0
  6
Continuous
 62
     4
100
AcDbText
 10
-47.02741355052124
 20
264.6881530405065
 30
0.0
 40
3.5
  1
60
 41
0.8
  7
TSTYLE13
 72
     1
 11
-44.92741355052124
 21
266.4381530405065
 31
0.0
100
AcDbText
 73
     2
  0
LINE
  5
336
330
89
100
AcDbEntity
  8
AM_0
  6
Continuous
 62
     3
100
AcDbLine
 10
-14.92741391645529
 20
228.757835195181
 30
0.0
 11
-14.92741391645529
 21
264.688167358209
 31
0.0
  0
POINT
  5
337
330
89
100
AcDbEntity
  8
DEFPOINTS
 62
     3
100
AcDbPoint
 10
-74.92741357449563
 20
217.4502078143451
 30
0.0
  0
POINT
  5
338
330
89
100
AcDbEntity
  8
DEFPOINTS
 62
     3
100
AcDbPoint
 10
-14.92741391645529
 20
224.7578353205188
 30
0.0
  0
POINT
  5
339
330
89
100
AcDbEntity
  8
DEFPOINTS
 62
     3
100
AcDbPoint
 10
-14.92741391645529
 20
263.5215006915423
 30
0.0
  0
ENDBLK
  5
33A
330
89
100
AcDbEntity
  8
0
100
AcDbBlockEnd
  0
BLOCK
  5
33B
330
8A
100
AcDbEntity
  8
0
100
AcDbBlockBegin
  2
*D82
 70
     1
 10
0.0
 20
0.0
 30
0.0
  3
*D82
  1

  0
LINE
  5
33C
330
8A
100
AcDbEntity
  8
AM_0
  6
Continuous
 62
     3
100
AcDbLine
 10
-53.42741418583779
 20
234.4502090544097
 30
0.0
 11
-111.2675658389218
 21
234.4502090544097
 31
0.0
  0
LINE
  5
33D
330
8A
100
AcDbEntity
  8
AM_0
  6
Continuous
 62
     3
100
AcDbLine
 10
-110.1008991722551
 20
234.4502090544097
 30
0.0
 11
-109.5608991722551
 21
231.4502090544097
 31
0.0
  0
LINE
  5
33E
330
8A
100
AcDbEntity
  8
AM_0
  6
Continuous
 62
     3
100
AcDbLine
 10
-109.5608991722551
 20
231.4502090544097
 30
0.0
 11
-110.6408991722551
 21
231.4502090544097
 31
0.0
  0
LINE
  5
33F
330
8A
100
AcDbEntity
  8
AM_0
  6
Continuous
 62
     3
100
AcDbLine
 10
-110.6408991722551
 20
231.4502090544097
 30
0.0
 11
-110.1008991722551
 21
234.4502090544097
 31
0.0
  0
LINE
  5
340
330
8A
100
AcDbEntity
  8
AM_0
  6
Continuous
 62
     3
100
AcDbLine
 10
-110.1008991722551
 20
207.5233683630943
 30
0.0
 11
-110.6408991722551
 21
210.5233683630943
 31
0.0
  0
LINE
  5
341
330
8A
100
AcDbEntity
  8
AM_0
  6
Continuous
 62
     3
100
AcDbLine
 10
-110.6408991722551
 20
210.5233683630943
 30
0.0
 11
-109.5608991722551
 21
210.5233683630943
 31
0.0
  0
LINE
  5
342
330
8A
100
AcDbEntity
  8
AM_0
  6
Continuous
 62
     3
100
AcDbLine
 10
-109.5608991722551
 20
210.5233683630943
 30
0.0
 11
-110.1008991722551
 21
207.5233683630943
 31
0.0
  0
LINE
  5
343
330
8A
100
AcDbEntity
  8
AM_0
  6
Continuous
 62
     3
100
AcDbLine
 10
-110.1008991722551
 20
234.4502090544097
 30
0.0
 11
-110.1008991722551
 21
207.5233683630943
 31
0.0
  0
TEXT
  5
344
330
8A
100
AcDbEntity
  8
AM_0
  6
Continuous
 62
     4
100
AcDbText
 10
-111.2675685423353
 20
213.9867882791728
 30
0.0
 40
3.5
  1
26.927
 50
90.0
 41
0.8
  7
TSTYLE13
 72
     1
 11
-113.0175685423352
 21
220.9867882791728
 31
0.0
100
AcDbText
 73
     2
  0
LINE
  5
345
330
8A
100
AcDbEntity
  8
AM_0
  6
Continuous
 62
     3
100
AcDbLine
 10
-67.71999915749612
 20
207.5233683630943
 30
0.0
 11
-111.2675658389218
 21
207.5233683630943
 31
0.0
  0
POINT
  5
346
330
8A
100
AcDbEntity
  8
DEFPOINTS
 62
     3
100
AcDbPoint
 10
-48.42741437000904
 20
234.4502090544097
 30
0.0
  0
POINT
  5
347
330
8A
100
AcDbEntity
  8
DEFPOINTS
 62
     3
100
AcDbPoint
 10
-63.71999930483312
 20
207.5233683630943
 30
0.0
  0
POINT
  5
348
330
8A
100
AcDbEntity
  8
DEFPOINTS
 62
     3
100
AcDbPoint
 10
-110.1008991722551
 20
207.5233683630943
 30
0.0
  0
ENDBLK
  5
349
330
8A
100
AcDbEntity
  8
0
100
AcDbBlockEnd
  0
ENDSEC
  0
SECTION
  2
ENTITIES
  0
CIRCLE
  5
8C
330
A
100
AcDbEntity
  8
MODELLO_MODELLO
  6
Continuous
 62
     7
100
AcDbCircle
 10
-74.92741357449563
 20
217.4502078143451
 30
0.0
 40
0.01
  0
CIRCLE
  5
8D
330
A
100
AcDbEntity
  8
MODELLO_MODELLO
  6
Continuous
 62
     7
100
AcDbCircle
 10
-74.92741357449563
 20
217.4502078143451
 30
0.0
 40
0.01
  0
CIRCLE
  5
8E
330
A
100
AcDbEntity
  8
MODELLO_MODELLO
  6
Continuous
 62
     7
100
AcDbCircle
 10
-50.92741432321395
 20
233.4502089374225
 30
0.0
 40
0.01
  0
CIRCLE
  5
8F
330
A
100
AcDbEntity
  8
MODELLO_MODELLO
  6
Continuous
 62
     7
100
AcDbCircle
 10
-45.92741431984473
 20
233.3782091713967
 30
0.0
 40
0.01
  0
CIRCLE
  5
90
330
A
100
AcDbEntity
  8
MODELLO_MODELLO
  6
Continuous
 62
     7
100
AcDbCircle
 10
-50.92741432321395
 20
233.4502089374225
 30
0.0
 40
0.01
  0
CIRCLE
  5
91
330
A
100
AcDbEntity
  8
MODELLO_MODELLO
  6
Continuous
 62
     7
100
AcDbCircle
 10
-45.92741431984473
 20
233.3782091713967
 30
0.0
 40
0.01
  0
CIRCLE
  5
92
330
A
100
AcDbEntity
  8
MODELLO_MODELLO
  6
Continuous
 62
     7
100
AcDbCircle
 10
-64.92741404244475
 20
227.450208282294
 30
0.0
 40
0.01
  0
CIRCLE
  5
93
330
A
100
AcDbEntity
  8
MODELLO_MODELLO
  6
Continuous
 62
     7
100
AcDbCircle
 10
-70.92741357449563
 20
217.4502080015245
 30
0.0
 40
0.01
  0
CIRCLE
  5
94
330
A
100
AcDbEntity
  8
MODELLO_MODELLO
  6
Continuous
 62
     7
100
AcDbCircle
 10
-49.92741437000905
 20
234.4502089842174
 30
0.0
 40
0.01
  0
LINE
  5
95
330
A
100
AcDbEntity
  8
AM_1
  6
Continuous
 62
     7
100
AcDbLine
 10
-45.92741404244475
 20
227.4502091713969
 30
0.0
 11
-42.00241404829398
 21
227.4502093550668
 31
0.0
  0
LINE
  5
96
330
A
100
AcDbEntity
  8
AM_1
  6
Continuous
 62
     7
100
AcDbLine
 10
-37.00241404829399
 20
227.4502095890414
 30
0.0
 11
-22.85241403659552
 21
227.4502102511899
 31
0.0
  0
LINE
  5
97
330
A
100
AcDbEntity
  8
AM_1
  6
Continuous
 62
     7
100
AcDbLine
 10
-50.92741432321395
 20
233.4502089374225
 30
0.0
 11
-50.92741408923962
 21
228.4502089374225
 31
0.0
  0
LINE
  5
98
330
A
100
AcDbEntity
  8
AM_1
  6
Continuous
 62
     7
100
AcDbLine
 10
-45.92741432321395
 20
233.4502091713968
 30
0.0
 11
-45.92741404244475
 21
227.4502091713969
 31
0.0
  0
ARC
  5
99
330
A
100
AcDbEntity
  8
AM_1
  6
Continuous
 62
     7
100
AcDbCircle
 10
-64.92741357449563
 20
217.4502082822939
 30
0.0
 40
10.0
100
AcDbArc
 50
90.00000268115092
 51
276.9348943548475
  0
LINE
  5
9A
330
A
100
AcDbEntity
  8
AM_1
  6
Continuous
 62
     7
100
AcDbLine
 10
-51.92741404244475
 20
227.4502088906277
 30
0.0
 11
-54.85241403659529
 21
227.4502087537526
 31
0.0
  0
LINE
  5
9B
330
A
100
AcDbEntity
  8
AM_1
  6
Continuous
 62
     7
100
AcDbLine
 10
-59.85241403659529
 20
227.450208519778
 30
0.0
 11
-64.92741404244475
 21
227.450208282294
 31
0.0
  0
ARC
  5
9C
330
A
100
AcDbEntity
  8
AM_1
  6
Continuous
 62
     7
100
AcDbCircle
 10
-51.92741408923962
 20
228.4502088906277
 30
0.0
 40
1.0
100
AcDbArc
 50
270.0000026811484
 51
0.0000026811483618
  0
LINE
  5
9D
330
A
100
AcDbEntity
  8
AM_1
  6
Continuous
 62
     7
100
AcDbLine
 10
-49.92741437000905
 20
234.4502089842174
 30
0.0
 11
-46.92741437000904
 21
234.450209124602
 31
0.0
  0
ARC
  5
9E
330
A
100
AcDbEntity
  8
AM_1
  6
Continuous
 62
     7
100
AcDbCircle
 10
-49.92741432321395
 20
233.4502089842174
 30
0.0
 40
1.0
100
AcDbArc
 50
90.00000268116135
 51
180.0000026811484
  0
ARC
  5
9F
330
A
100
AcDbEntity
  8
AM_1
  6
Continuous
 62
     7
100
AcDbCircle
 10
-46.92741432321395
 20
233.450209124602
 30
0.0
 40
1.0
100
AcDbArc
 50
0.0000026811483618
 51
90.00000268116135
  0
LINE
  5
A0
330
A
100
AcDbEntity
  8
AM_1
  6
Continuous
 62
     7
100
AcDbLine
 10
-17.85241403659552
 20
227.4502104851638
 30
0.0
 11
-15.17741404244475
 21
227.45021061034
 31
0.0
  0
ARC
  5
A1
330
A
100
AcDbEntity
  8
AM_1
  6
Continuous
 62
     7
100
AcDbCircle
 10
-15.17741403074592
 20
227.20021061034
 30
0.0
 40
0.25
100
AcDbArc
 50
0.0000026811744169
 51
90.00000268117437
  0
LINE
  5
A2
330
A
100
AcDbEntity
  8
AM_1
  6
Continuous
 62
     7
100
AcDbLine
 10
-14.92741403074592
 20
227.2002106220389
 30
0.0
 11
-14.92741380216466
 21
222.3154600189987
 31
0.0
  0
ARC
  5
A3
330
A
100
AcDbEntity
  8
MODELLO_MODELLO
  6
Continuous
 62
     7
100
AcDbCircle
 10
-49.92741432321395
 20
233.4502089842174
 30
0.0
 40
1.0
100
AcDbArc
 50
90.00000268116135
 51
180.0000026811484
  0
LINE
  5
A4
330
A
100
AcDbEntity
  8
AM_0
  6
CENTER2
 62
     2
100
AcDbLine
 10
-64.92741329372643
 20
211.4502082822939
 30
0.0
 11
-64.92741385526506
 21
223.450208282294
 31
0.0
  0
LINE
  5
A5
330
A
100
AcDbEntity
  8
AM_0
  6
CENTER2
 62
     2
100
AcDbLine
 10
-64.92741404197682
 20
227.4402082822939
 30
0.0
 11
-64.92741404291269
 21
227.4602082822939
 31
0.0
  0
LINE
  5
A6
330
A
100
AcDbEntity
  8
AM_0
  6
CENTER2
 62
     2
100
AcDbLine
 10
-74.91741357449564
 20
217.450207814813
 30
0.0
 11
-74.93741357449562
 21
217.4502078138771
 31
0.0
  0
LINE
  5
A7
330
A
100
AcDbEntity
  8
AM_1
  6
Continuous
 62
     7
100
AcDbLine
 10
-18.10241401319808
 20
226.9502104734649
 30
0.0
 11
-22.60241401319809
 21
226.9502102628878
 31
0.0
  0
ARC
  5
A8
330
A
100
AcDbEntity
  8
AM_1
  6
Continuous
 62
     7
100
AcDbCircle
 10
-22.60241402489669
 20
227.2002102628878
 30
0.0
 40
0.25
100
AcDbArc
 50
180.0000026811224
 51
270.0000026811224
  0
ARC
  5
A9
330
A
100
AcDbEntity
  8
AM_1
  6
Continuous
 62
     7
100
AcDbCircle
 10
-18.10241402489669
 20
227.2002104734649
 30
0.0
 40
0.25
100
AcDbArc
 50
270.0000026811224
 51
0.0000026811744169
  0
LINE
  5
AA
330
A
100
AcDbEntity
  8
AM_1
  6
Continuous
 62
     7
100
AcDbLine
 10
-22.85241403659552
 20
227.4502102511899
 30
0.0
 11
-22.85241402489669
 21
227.2002102511892
 31
0.0
  0
LINE
  5
AB
330
A
100
AcDbEntity
  8
AM_1
  6
Continuous
 62
     7
100
AcDbLine
 10
-17.85241403659552
 20
227.4502104851638
 30
0.0
 11
-17.85241402489669
 21
227.2002104851638
 31
0.0
  0
LINE
  5
AC
330
A
100
AcDbEntity
  8
AM_1
  6
Continuous
 62
     7
100
AcDbLine
 10
-41.75241402489655
 20
226.9502093667656
 30
0.0
 11
-37.25241402489655
 21
226.9502095773428
 31
0.0
  0
LINE
  5
AD
330
A
100
AcDbEntity
  8
AM_1
  6
Continuous
 62
     7
100
AcDbLine
 10
-37.00241404829399
 20
227.4502095890414
 30
0.0
 11
-37.00241403659516
 21
227.2002095890414
 31
0.0
  0
LINE
  5
AE
330
A
100
AcDbEntity
  8
AM_1
  6
Continuous
 62
     7
100
AcDbLine
 10
-42.00241404829398
 20
227.4502093550668
 30
0.0
 11
-42.00241403659515
 21
227.2002093550668
 31
0.0
  0
ARC
  5
AF
330
A
100
AcDbEntity
  8
AM_1
  6
Continuous
 62
     7
100
AcDbCircle
 10
-41.75241403659515
 20
227.2002093667656
 30
0.0
 40
0.25
100
AcDbArc
 50
180.0000026811744
 51
270.0000026811224
  0
ARC
  5
B0
330
A
100
AcDbEntity
  8
AM_1
  6
Continuous
 62
     7
100
AcDbCircle
 10
-37.25241403659516
 20
227.2002095773428
 30
0.0
 40
0.25
100
AcDbArc
 50
270.0000026811224
 51
0.0000026811223067
  0
LINE
  5
B1
330
A
100
AcDbEntity
  8
AM_1
  6
Continuous
 62
     7
100
AcDbLine
 10
-55.10241401319786
 20
226.9502087420538
 30
0.0
 11
-59.60241401319786
 21
226.9502085314769
 31
0.0
  0
LINE
  5
B2
330
A
100
AcDbEntity
  8
AM_1
  6
Continuous
 62
     7
100
AcDbLine
 10
-59.85241403659529
 20
227.450208519778
 30
0.0
 11
-59.85241402489669
 21
227.200208519778
 31
0.0
  0
LINE
  5
B3
330
A
100
AcDbEntity
  8
AM_1
  6
Continuous
 62
     7
100
AcDbLine
 10
-54.85241403659529
 20
227.4502087537526
 30
0.0
 11
-54.85241402489669
 21
227.2002087537526
 31
0.0
  0
ARC
  5
B4
330
A
100
AcDbEntity
  8
AM_1
  6
Continuous
 62
     7
100
AcDbCircle
 10
-55.10241402489668
 20
227.2002087420537
 30
0.0
 40
0.25
100
AcDbArc
 50
270.0000026811745
 51
0.0000026811744169
  0
ARC
  5
B5
330
A
100
AcDbEntity
  8
AM_1
  6
Continuous
 62
     7
100
AcDbCircle
 10
-59.60241402489669
 20
227.2002085314769
 30
0.0
 40
0.25
100
AcDbArc
 50
180.0000026811744
 51
270.0000026811745
  0
LINE
  5
B6
330
A
100
AcDbEntity
  8
AM_0
  6
CENTER2
 62
     2
100
AcDbLine
 10
-58.92741357449563
 20
217.4502085630634
 30
0.0
 11
-70.93741357449562
 21
217.4502080010566
 31
0.0
  0
LINE
  5
B7
330
A
100
AcDbEntity
  8
AM_0
  6
Continuous
 62
     7
100
AcDbLine
 10
-58.12009713941325
 20
208.2044916448515
 30
0.0
 11
-57.18778386097665
 21
208.8215750677778
 31
0.0
  0
LINE
  5
B8
330
A
100
AcDbEntity
  8
AM_0
  6
Continuous
 62
     7
100
AcDbLine
 10
-57.18778386097665
 20
208.8215750677778
 30
0.0
 11
-56.13472915557349
 21
208.4459744987841
 31
0.0
  0
LINE
  5
B9
330
A
100
AcDbEntity
  8
AM_0
  6
Continuous
 62
     7
100
AcDbLine
 10
-37.33410402257755
 20
211.236403607103
 30
0.0
 11
-36.2810493171744
 21
210.8608030381092
 31
0.0
  0
LINE
  5
BA
330
A
100
AcDbEntity
  8
AM_0
  6
Continuous
 62
     7
100
AcDbLine
 10
-38.26641730101414
 20
210.619320184177
 30
0.0
 11
-37.33410402257755
 21
211.236403607103
 31
0.0
  0
LINE
  5
BB
330
A
100
AcDbEntity
  8
AM_1
  6
Continuous
 62
     7
100
AcDbLine
 10
-56.13472915557372
 20
208.4459744987839
 30
0.0
 11
-38.26641730101414
 21
210.619320184177
 31
0.0
  0
LINE
  5
BC
330
A
100
AcDbEntity
  8
AM_1
  6
Continuous
 62
     7
100
AcDbLine
 10
-63.71999930483298
 20
207.5233683630943
 30
0.0
 11
-58.12009713941347
 21
208.2044916448512
 31
0.0
  0
LINE
  5
BD
330
A
100
AcDbEntity
  8
AM_1
  6
Continuous
 62
     7
100
AcDbLine
 10
-36.2810493171744
 20
210.8608030381094
 30
0.0
 11
-23.71999953250202
 21
212.3886196318499
 31
0.0
  0
ARC
  5
BE
330
A
100
AcDbEntity
  8
AM_1
  6
Continuous
 62
     7
100
AcDbCircle
 10
-24.92741380216467
 20
222.3154595510496
 30
0.0
 40
10.0
100
AcDbArc
 50
276.9348943548473
 51
0.0000026811509673
  0
LINE
  5
C0
330
A
100
AcDbEntity
  8
AM_0
  6
Continuous
 62
     7
100
AcDbLine
 10
-74.92740857449572
 20
217.4502078143453
 30
0.0
 11
-74.92740857449572
 21
217.440207815595
 31
0.0
  0
LINE
  5
C1
330
A
100
AcDbEntity
  8
AM_0
  6
Continuous
 62
     7
100
AcDbLine
 10
-74.92740857449572
 20
154.1357421875
 30
0.0
 11
-74.92740857449572
 21
151.6357421875
 31
0.0
  0
LINE
  5
C2
330
A
100
AcDbEntity
  8
AM_0
  6
Continuous
 62
     7
100
AcDbLine
 10
-14.92741391645529
 20
224.7578353205188
 30
0.0
 11
-14.92741391645529
 21
222.3154595510496
 31
0.0
  0
LINE
  5
C3
330
A
100
AcDbEntity
  8
AM_0
  6
Continuous
 62
     7
100
AcDbLine
 10
-14.92741391645529
 20
154.1357421875
 30
0.0
 11
-14.92741391645529
 21
151.6357421875
 31
0.0
  0
LINE
  5
C4
330
A
100
AcDbEntity
  8
AM_0
  6
Continuous
 62
     7
100
AcDbLine
 10
-74.92740857449572
 20
154.1357421875
 30
0.0
 11
-14.92741391645529
 21
154.1357421875
 31
0.0
  0
LINE
  5
C5
330
A
100
AcDbEntity
  8
AM_0
  6
Continuous
 62
     7
100
AcDbLine
 10
-14.92741391645529
 20
151.6357421875
 30
0.0
 11
-74.92740857449572
 21
151.6357421875
 31
0.0
  0
ENDSEC
  0
SECTION
  2
OBJECTS
  0
DICTIONARY
  5
19
330
0
100
AcDbDictionary
281
     1
  3
ACAD_COLOR
350
37F
  3
ACAD_GROUP
350
1A
  3
ACAD_LAYOUT
350
396
  3
ACAD_MATERIAL
350
34D
  3
ACAD_MLEADERSTYLE
350
394
  3
ACAD_MLINESTYLE
350
1B
  3
ACAD_PLOTSETTINGS
350
397
  3
ACAD_PLOTSTYLENAME
350
34B
  3
ACAD_SCALELIST
350
382
  3
ACAD_TABLESTYLE
350
380
  3
ACAD_VISUALSTYLE
350
366
  3
ACDB_RECOMPOSE_DATA
350
3C0
  3
AcDbVariableDictionary
350
3B6
  3
ASE_INDEX_DICTIONARY
350
3B3
  3
DWGPROPS
350
3C1
  0
DICTIONARY
  5
39C
330
14
100
AcDbDictionary
280
     1
281
     1
  3
ADSK_XREC_LAYER_RECONCILED
360
39D
  0
DICTIONARY
  5
39E
330
1E
100
AcDbDictionary
280
     1
281
     1
  3
ADSK_XREC_LAYER_RECONCILED
360
39F
  0
DICTIONARY
  5
3A0
330
1F
100
AcDbDictionary
280
     1
281
     1
  3
ADSK_XREC_LAYER_RECONCILED
360
3A1
  0
DICTIONARY
  5
3A2
330
20
100
AcDbDictionary
280
     1
281
     1
  3
ADSK_XREC_LAYER_RECONCILED
360
3A3
  0
DICTIONARY
  5
3A4
330
21
100
AcDbDictionary
280
     1
281
     1
  3
ADSK_XREC_LAYER_RECONCILED
360
3A5
  0
DICTIONARY
  5
3A6
330
22
100
AcDbDictionary
280
     1
281
     1
  3
ADSK_XREC_LAYER_RECONCILED
360
3A7
  0
DICTIONARY
  5
3A8
330
23
100
AcDbDictionary
280
     1
281
     1
  3
ADSK_XREC_LAYER_RECONCILED
360
3A9
  0
DICTIONARY
  5
3AA
330
24
100
AcDbDictionary
280
     1
281
     1
  3
ADSK_XREC_LAYER_RECONCILED
360
3AB
  0
DICTIONARY
  5
3AC
330
25
100
AcDbDictionary
280
     1
281
     1
  3
ADSK_XREC_LAYER_RECONCILED
360
3AD
  0
DICTIONARY
  5
3AE
330
26
100
AcDbDictionary
280
     1
281
     1
  3
ADSK_XREC_LAYER_RECONCILED
360
3AF
  0
DICTIONARY
  5
3B0
330
27
100
AcDbDictionary
280
     1
281
     1
  3
ADSK_XREC_LAYER_RECONCILED
360
3B1
  0
DICTIONARY
  5
37F
102
{ACAD_REACTORS
330
19
102
}
330
19
100
AcDbDictionary
281
     1
  0
DICTIONARY
  5
1A
102
{ACAD_REACTORS
330
19
102
}
330
19
100
AcDbDictionary
281
     1
  0
DICTIONARY
  5
396
102
{ACAD_REACTORS
330
19
102
}
330
19
100
AcDbDictionary
281
     1
  3
Layout1
350
399
  3
Model
350
398
  0
DICTIONARY
  5
34D
102
{ACAD_REACTORS
330
19
102
}
330
19
100
AcDbDictionary
281
     1
  3
ByBlock
350
356
  3
ByLayer
350
34E
  3
Global
350
35E
  0
DICTIONARY
  5
394
102
{ACAD_REACTORS
330
19
102
}
330
19
100
AcDbDictionary
281
     1
  3
Standard
350
395
  0
DICTIONARY
  5
1B
102
{ACAD_REACTORS
330
19
102
}
330
19
100
AcDbDictionary
281
     1
  3
STANDARD
350
1C
  0
DICTIONARY
  5
397
102
{ACAD_REACTORS
330
19
102
}
330
19
100
AcDbDictionary
281
     1
  0
ACDBDICTIONARYWDFLT
  5
34B
102
{ACAD_REACTORS
330
19
102
}
330
19
100
AcDbDictionary
281
     1
  3
Normal
350
34C
100
AcDbDictionaryWithDefault
340
34C
  0
DICTIONARY
  5
382
102
{ACAD_REACTORS
330
19
102
}
330
19
100
AcDbDictionary
281
     1
  3
A0
350
383
  3
A1
350
384
  3
A2
350
385
  3
A3
350
386
  3
A4
350
387
  3
A5
350
388
  3
A6
350
389
  3
A7
350
38A
  3
A8
350
38B
  3
A9
350
38C
  3
B0
350
38D
  3
B1
350
38E
  3
B2
350
38F
  3
B3
350
390
  3
B4
350
391
  3
B5
350
392
  3
B6
350
393
  0
DICTIONARY
  5
380
102
{ACAD_REACTORS
330
19
102
}
330
19
100
AcDbDictionary
281
     1
  3
Standard
350
381
  0
DICTIONARY
  5
366
102
{ACAD_REACTORS
330
19
102
}
330
19
100
AcDbDictionary
281
     1
  3
2dWireframe
350
36C
  3
Basic
350
36B
  3
Brighten
350
372
  3
ColorChange
350
376
  3
Conceptual
350
36F
  3
Dim
350
371
  3
EdgeColorOff
350
37E
  3
Facepattern
350
375
  3
Flat
350
367
  3
FlatWithEdges
350
368
  3
Gouraud
350
369
  3
GouraudWithEdges
350
36A
  3
Hidden
350
36E
  3
JitterOff
350
37C
  3
Linepattern
350
374
  3
OverhangOff
350
37D
  3
Realistic
350
370
  3
Shaded
350
37B
  3
Shaded with edges
350
37A
  3
Shades of Gray
350
377
  3
Sketchy
350
378
  3
Thicken
350
373
  3
Wireframe
350
36D
  3
X-Ray
350
379
  0
XRECORD
  5
3C0
102
{ACAD_REACTORS
330
19
102
}
330
19
100
AcDbXrecord
280
     1
 90
        1
330
381
  0
DICTIONARY
  5
3B6
102
{ACAD_REACTORS
330
19
102
}
330
19
100
AcDbDictionary
281
     1
  3
CANNOSCALE
350
3B9
  3
CMLEADERSTYLE
350
3B8
  3
CTABLESTYLE
350
3B7
  3
DIMASSOC
350
3BC
  3
INDEXCTL
350
3BB
  3
SORTENTS
350
3BA
  3
XCLIPFRAME
350
3BD
  0
DICTIONARY
  5
3B3
102
{ACAD_REACTORS
330
19
102
}
330
19
100
AcDbDictionary
281
     1
  3
ASEBlockHierarchyIndexRecord
350
3B5
1001
DCO15
1040
1717903715.047
  0
XRECORD
  5
3C1
102
{ACAD_REACTORS
330
19
102
}
330
19
100
AcDbXrecord
280
     1
  1
DWGPROPS COOKIE
  2

  3

  4

  6

  7

  8
mpistoia
  9

300
=
301
=
302
=
303
=
304
=
305
=
306
=
307
=
308
=
309
=
 40
0.000235625
 41
2444972.083333333
 42
2455686.356701933
  1

 90
        0
  0
XRECORD
  5
39D
102
{ACAD_REACTORS
330
39C
102
}
330
39C
100
AcDbXrecord
280
     1
290
     1
  0
XRECORD
  5
39F
102
{ACAD_REACTORS
330
39E
102
}
330
39E
100
AcDbXrecord
280
     1
290
     1
  0
XRECORD
  5
3A1
102
{ACAD_REACTORS
330
3A0
102
}
330
3A0
100
AcDbXrecord
280
     1
290
     1
  0
XRECORD
  5
3A3
102
{ACAD_REACTORS
330
3A2
102
}
330
3A2
100
AcDbXrecord
280
     1
290
     1
  0
XRECORD
  5
3A5
102
{ACAD_REACTORS
330
3A4
102
}
330
3A4
100
AcDbXrecord
280
     1
290
     1
  0
XRECORD
  5
3A7
102
{ACAD_REACTORS
330
3A6
102
}
330
3A6
100
AcDbXrecord
280
     1
290
     1
  0
XRECORD
  5
3A9
102
{ACAD_REACTORS
330
3A8
102
}
330
3A8
100
AcDbXrecord
280
     1
290
     1
  0
XRECORD
  5
3AB
102
{ACAD_REACTORS
330
3AA
102
}
330
3AA
100
AcDbXrecord
280
     1
290
     1
  0
XRECORD
  5
3AD
102
{ACAD_REACTORS
330
3AC
102
}
330
3AC
100
AcDbXrecord
280
     1
290
     1
  0
XRECORD
  5
3AF
102
{ACAD_REACTORS
330
3AE
102
}
330
3AE
100
AcDbXrecord
280
     1
290
     1
  0
XRECORD
  5
3B1
102
{ACAD_REACTORS
330
3B0
102
}
330
3B0
100
AcDbXrecord
280
     1
290
     1
  0
LAYOUT
  5
399
102
{ACAD_XDICTIONARY
360
3F9
102
}
102
{ACAD_REACTORS
330
396
102
}
330
396
100
AcDbPlotSettings
  1

  2
CutePDF Writer
  4

  6

 40
0.0
 41
0.0
 42
0.0
 43
0.0
 44
0.0
 45
0.0
 46
0.0
 47
0.0
 48
0.0
 49
0.0
140
0.0
141
0.0
142
1.0
143
1.0
 70
   688
 72
     0
 73
     0
 74
     5
  7

 75
    16
147
1.0
148
0.0
149
0.0
100
AcDbLayout
  1
Layout1
 70
     0
 71
     1
 10
334.8782958984375
 20
-1675.322021484375
 11
792.8021850585937
 21
-1057.550048828125
 12
0.0
 22
0.0
 32
0.0
 14
1.000000000000000E+20
 24
1.000000000000000E+20
 34
1.000000000000000E+20
 15
-1.000000000000000E+20
 25
-1.000000000000000E+20
 35
-1.000000000000000E+20
146
0.0
 13
0.0
 23
0.0
 33
0.0
 16
1.0
 26
0.0
 36
0.0
 17
0.0
 27
1.0
 37
0.0
 76
     0
330
B
  0
LAYOUT
  5
398
102
{ACAD_XDICTIONARY
360
3F7
102
}
102
{ACAD_REACTORS
330
396
102
}
330
396
100
AcDbPlotSettings
  1

  2
CutePDF Writer
  4

  6

 40
0.0
 41
0.0
 42
0.0
 43
0.0
 44
0.0
 45
0.0
 46
0.0
 47
0.0
 48
0.0
 49
0.0
140
0.0
141
0.0
142
1.0
143
1.0
 70
  1712
 72
     0
 73
     0
 74
     0
  7

 75
     0
147
1.0
148
0.0
149
0.0
100
AcDbLayout
  1
Model
 70
     1
 71
     0
 10
0.0
 20
0.0
 11
12.0
 21
9.0
 12
0.0
 22
0.0
 32
0.0
 14
0.0
 24
0.0
 34
0.0
 15
0.0
 25
0.0
 35
0.0
146
0.0
 13
0.0
 23
0.0
 33
0.0
 16
1.0
 26
0.0
 36
0.0
 17
0.0
 27
1.0
 37
0.0
 76
     0
330
A
331
15
  0
MATERIAL
  5
356
102
{ACAD_XDICTIONARY
360
357
102
}
102
{ACAD_REACTORS
330
34D
102
}
330
34D
100
AcDbMaterial
  1
ByBlock
 72
     0
 43
0.0208333333333333
 43
0.0
 43
0.0
 43
0.0
 43
0.0
 43
0.0208333333333333
 43
0.0
 43
0.0
 43
0.0
 43
0.0
 43
1.0
 43
0.0
 43
0.0
 43
0.0
 43
0.0
 43
1.0
 77
     0
 47
0.0208333333333333
 47
0.0
 47
0.0
 47
0.0
 47
0.0
 47
0.0208333333333333
 47
0.0
 47
0.0
 47
0.0
 47
0.0
 47
1.0
 47
0.0
 47
0.0
 47
0.0
 47
0.0
 47
1.0
171
     0
 49
0.0208333333333333
 49
0.0
 49
0.0
 49
0.0
 49
0.0
 49
0.0208333333333333
 49
0.0
 49
0.0
 49
0.0
 49
0.0
 49
1.0
 49
0.0
 49
0.0
 49
0.0
 49
0.0
 49
1.0
175
     0
142
0.0208333333333333
142
0.0
142
0.0
142
0.0
142
0.0
142
0.0208333333333333
142
0.0
142
0.0
142
0.0
142
0.0
142
1.0
142
0.0
142
0.0
142
0.0
142
0.0
142
1.0
179
     0
144
0.0208333333333333
144
0.0
144
0.0
144
0.0
144
0.0
144
0.0208333333333333
144
0.0
144
0.0
144
0.0
144
0.0
144
1.0
144
0.0
144
0.0
144
0.0
144
0.0
144
1.0
147
0.0208333333333333
147
0.0
147
0.0
147
0.0
147
0.0
147
0.0208333333333333
147
0.0
147
0.0
147
0.0
147
0.0
147
1.0
147
0.0
147
0.0
147
0.0
147
0.0
147
1.0
  0
MATERIAL
  5
34E
102
{ACAD_XDICTIONARY
360
34F
102
}
102
{ACAD_REACTORS
330
34D
102
}
330
34D
100
AcDbMaterial
  1
ByLayer
 72
     0
 43
0.0208333333333333
 43
0.0
 43
0.0
 43
0.0
 43
0.0
 43
0.0208333333333333
 43
0.0
 43
0.0
 43
0.0
 43
0.0
 43
1.0
 43
0.0
 43
0.0
 43
0.0
 43
0.0
 43
1.0
 77
     0
 47
0.0208333333333333
 47
0.0
 47
0.0
 47
0.0
 47
0.0
 47
0.0208333333333333
 47
0.0
 47
0.0
 47
0.0
 47
0.0
 47
1.0
 47
0.0
 47
0.0
 47
0.0
 47
0.0
 47
1.0
171
     0
 49
0.0208333333333333
 49
0.0
 49
0.0
 49
0.0
 49
0.0
 49
0.0208333333333333
 49
0.0
 49
0.0
 49
0.0
 49
0.0
 49
1.0
 49
0.0
 49
0.0
 49
0.0
 49
0.0
 49
1.0
175
     0
142
0.0208333333333333
142
0.0
142
0.0
142
0.0
142
0.0
142
0.0208333333333333
142
0.0
142
0.0
142
0.0
142
0.0
142
1.0
142
0.0
142
0.0
142
0.0
142
0.0
142
1.0
179
     0
144
0.0208333333333333
144
0.0
144
0.0
144
0.0
144
0.0
144
0.0208333333333333
144
0.0
144
0.0
144
0.0
144
0.0
144
1.0
144
0.0
144
0.0
144
0.0
144
0.0
144
1.0
147
0.0208333333333333
147
0.0
147
0.0
147
0.0
147
0.0
147
0.0208333333333333
147
0.0
147
0.0
147
0.0
147
0.0
147
1.0
147
0.0
147
0.0
147
0.0
147
0.0
147
1.0
  0
MATERIAL
  5
35E
102
{ACAD_XDICTIONARY
360
35F
102
}
102
{ACAD_REACTORS
330
34D
102
}
330
34D
100
AcDbMaterial
  1
Global
 72
     0
 43
0.0208333333333333
 43
0.0
 43
0.0
 43
0.0
 43
0.0
 43
0.0208333333333333
 43
0.0
 43
0.0
 43
0.0
 43
0.0
 43
1.0
 43
0.0
 43
0.0
 43
0.0
 43
0.0
 43
1.0
 77
     0
 47
0.0208333333333333
 47
0.0
 47
0.0
 47
0.0
 47
0.0
 47
0.0208333333333333
 47
0.0
 47
0.0
 47
0.0
 47
0.0
 47
1.0
 47
0.0
 47
0.0
 47
0.0
 47
0.0
 47
1.0
171
     0
 49
0.0208333333333333
 49
0.0
 49
0.0
 49
0.0
 49
0.0
 49
0.0208333333333333
 49
0.0
 49
0.0
 49
0.0
 49
0.0
 49
1.0
 49
0.0
 49
0.0
 49
0.0
 49
0.0
 49
1.0
175
     0
142
0.0208333333333333
142
0.0
142
0.0
142
0.0
142
0.0
142
0.0208333333333333
142
0.0
142
0.0
142
0.0
142
0.0
142
1.0
142
0.0
142
0.0
142
0.0
142
0.0
142
1.0
179
     0
144
0.0208333333333333
144
0.0
144
0.0
144
0.0
144
0.0
144
0.0208333333333333
144
0.0
144
0.0
144
0.0
144
0.0
144
1.0
144
0.0
144
0.0
144
0.0
144
0.0
144
1.0
147
0.0208333333333333
147
0.0
147
0.0
147
0.0
147
0.0
147
0.0208333333333333
147
0.0
147
0.0
147
0.0
147
0.0
147
1.0
147
0.0
147
0.0
147
0.0
147
0.0
147
1.0
  0
MLEADERSTYLE
  5
395
102
{ACAD_REACTORS
330
394
102
}
330
394
100
AcDbMLeaderStyle
170
     2
171
     1
172
     0
 90
        2
 40
0.0
 41
0.0
173
     1
 91
-1056964608
340
11
 92
       -2
290
     1
 42
2.0
291
     1
 43
0.36
  3
Standard
 44
4.0
300

342
17
174
     1
178
     6
175
     1
176
     0
 93
-1056964608
 45
4.0
292
     0
297
     0
 46
4.0
 94
-1056964608
 47
1.0
 49
1.0
140
1.0
293
     1
141
0.0
294
     1
177
     0
142
1.0
295
     0
296
     0
143
0.125
1001
ACAD_MLEADERVER
1070
     2
  0
MLINESTYLE
  5
1C
102
{ACAD_REACTORS
330
1B
102
}
330
1B
100
AcDbMlineStyle
  2
STANDARD
 70
     0
  3

 62
     0
 51
90.00000000000019
 52
90.00000000000019
 71
     2
 49
0.5
 62
   256
  6
BYLAYER
 49
-0.5
 62
   256
  6
BYLAYER
  0
ACDBPLACEHOLDER
  5
34C
102
{ACAD_REACTORS
330
34B
102
}
330
34B
  0
SCALE
  5
383
102
{ACAD_REACTORS
330
382
102
}
330
382
100
AcDbScale
 70
     0
300
1:1
140
1.0
141
1.0
290
     1
  0
SCALE
  5
384
102
{ACAD_REACTORS
330
382
102
}
330
382
100
AcDbScale
 70
     0
300
1:2
140
1.0
141
2.0
290
     0
  0
SCALE
  5
385
102
{ACAD_REACTORS
330
382
102
}
330
382
100
AcDbScale
 70
     0
300
1:4
140
1.0
141
4.0
290
     0
  0
SCALE
  5
386
102
{ACAD_REACTORS
330
382
102
}
330
382
100
AcDbScale
 70
     0
300
1:5
140
1.0
141
5.0
290
     0
  0
SCALE
  5
387
102
{ACAD_REACTORS
330
382
102
}
330
382
100
AcDbScale
 70
     0
300
1:8
140
1.0
141
8.0
290
     0
  0
SCALE
  5
388
102
{ACAD_REACTORS
330
382
102
}
330
382
100
AcDbScale
 70
     0
300
1:10
140
1.0
141
10.0
290
     0
  0
SCALE
  5
389
102
{ACAD_REACTORS
330
382
102
}
330
382
100
AcDbScale
 70
     0
300
1:16
140
1.0
141
16.0
290
     0
  0
SCALE
  5
38A
102
{ACAD_REACTORS
330
382
102
}
330
382
100
AcDbScale
 70
     0
300
1:20
140
1.0
141
20.0
290
     0
  0
SCALE
  5
38B
102
{ACAD_REACTORS
330
382
102
}
330
382
100
AcDbScale
 70
     0
300
1:30
140
1.0
141
30.0
290
     0
  0
SCALE
  5
38C
102
{ACAD_REACTORS
330
382
102
}
330
382
100
AcDbScale
 70
     0
300
1:40
140
1.0
141
40.0
290
     0
  0
SCALE
  5
38D
102
{ACAD_REACTORS
330
382
102
}
330
382
100
AcDbScale
 70
     0
300
1:50
140
1.0
141
50.0
290
     0
  0
SCALE
  5
38E
102
{ACAD_REACTORS
330
382
102
}
330
382
100
AcDbScale
 70
     0
300
1:100
140
1.0
141
100.0
290
     0
  0
SCALE
  5
38F
102
{ACAD_REACTORS
330
382
102
}
330
382
100
AcDbScale
 70
     0
300
2:1
140
2.0
141
1.0
290
     0
  0
SCALE
  5
390
102
{ACAD_REACTORS
330
382
102
}
330
382
100
AcDbScale
 70
     0
300
4:1
140
4.0
141
1.0
290
     0
  0
SCALE
  5
391
102
{ACAD_REACTORS
330
382
102
}
330
382
100
AcDbScale
 70
     0
300
8:1
140
8.0
141
1.0
290
     0
  0
SCALE
  5
392
102
{ACAD_REACTORS
330
382
102
}
330
382
100
AcDbScale
 70
     0
300
10:1
140
10.0
141
1.0
290
     0
  0
SCALE
  5
393
102
{ACAD_REACTORS
330
382
102
}
330
382
100
AcDbScale
 70
     0
300
100:1
140
100.0
141
1.0
290
     0
  0
TABLESTYLE
  5
381
102
{ACAD_XDICTIONARY
360
3BE
102
}
102
{ACAD_REACTORS
330
380
102
}
330
380
100
AcDbTableStyle
  3
Standard
 70
     0
 71
     0
 40
1.5
 41
1.5
280
     0
281
     0
  7
STANDARD
140
4.5
170
     2
 62
     0
 63
     7
283
     0
274
    -2
284
     1
 64
     0
275
    -2
285
     1
 65
     0
276
    -2
286
     1
 66
     0
277
    -2
287
     1
 67
     0
278
    -2
288
     1
 68
     0
279
    -2
289
     1
 69
     0
  7
STANDARD
140
6.0
170
     5
 62
     0
 63
     7
283
     0
274
    -2
284
     1
 64
     0
275
    -2
285
     1
 65
     0
276
    -2
286
     1
 66
     0
277
    -2
287
     1
 67
     0
278
    -2
288
     1
 68
     0
279
    -2
289
     1
 69
     0
  7
STANDARD
140
4.5
170
     5
 62
     0
 63
     7
283
     0
274
    -2
284
     1
 64
     0
275
    -2
285
     1
 65
     0
276
    -2
286
     1
 66
     0
277
    -2
287
     1
 67
     0
278
    -2
288
     1
 68
     0
279
    -2
289
     1
 69
     0
  0
VISUALSTYLE
  5
36C
102
{ACAD_XDICTIONARY
360
3CF
102
}
102
{ACAD_REACTORS
330
366
102
}
330
366
100
AcDbVisualStyle
  2
2dWireframe
 70
     4
 71
     0
 72
     2
 73
     0
 90
        0
 40
-0.6
 41
-30.0
 62
     5
 63
     7
 74
     1
 91
        4
 64
     7
 65
   257
 75
     1
175
     1
 42
1.0
 92
        0
 66
   257
 43
1.0
 76
     1
 77
     6
 78
     2
 67
     7
 79
     5
170
     0
171
     0
290
     0
174
     0
 93
        1
 44
0.0
173
     0
291
     0
 45
0.0
1001
ACAD
1000
AcDbSavedByObjectVersion
1070
     0
  0
VISUALSTYLE
  5
36B
102
{ACAD_XDICTIONARY
360
3CD
102
}
102
{ACAD_REACTORS
330
366
102
}
330
366
100
AcDbVisualStyle
  2
Basic
 70
     7
 71
     1
 72
     0
 73
     1
 90
        0
 40
-0.6
 41
-30.0
 62
     5
 63
     7
 74
     0
 91
        4
 64
     7
 65
   257
 75
     1
175
     1
 42
1.0
 92
        8
 66
     7
 43
1.0
 76
     1
 77
     6
 78
     2
 67
     7
 79
     5
170
     0
171
     0
290
     0
174
     0
 93
        1
 44
0.0
173
     0
291
     1
 45
0.0
1001
ACAD
1000
AcDbSavedByObjectVersion
1070
     0
  0
VISUALSTYLE
  5
372
102
{ACAD_XDICTIONARY
360
3DB
102
}
102
{ACAD_REACTORS
330
366
102
}
330
366
100
AcDbVisualStyle
  2
Brighten
 70
    12
 71
     2
 72
     2
 73
     0
 90
        0
 40
-0.6
 41
-30.0
 62
     5
 63
     7
 74
     1
 91
        4
 64
     7
 65
   257
 75
     1
175
     1
 42
1.0
 92
        8
 66
     7
 43
1.0
 76
     1
 77
     6
 78
     2
 67
     7
 79
     5
170
     0
171
     0
290
     0
174
     0
 93
        1
 44
50.0
173
     0
291
     1
 45
0.0
1001
ACAD
1000
AcDbSavedByObjectVersion
1070
     0
  0
VISUALSTYLE
  5
376
102
{ACAD_XDICTIONARY
360
3E3
102
}
102
{ACAD_REACTORS
330
366
102
}
330
366
100
AcDbVisualStyle
  2
ColorChange
 70
    16
 71
     2
 72
     2
 73
     3
 90
        0
 40
-0.6
 41
-30.0
 62
     5
 63
     8
 74
     1
 91
        4
 64
     7
 65
   257
 75
     1
175
     1
 42
1.0
 92
        8
 66
     8
 43
1.0
 76
     1
 77
     6
 78
     2
 67
     7
 79
     5
170
     0
171
     0
290
     0
174
     0
 93
        1
 44
0.0
173
     0
291
     1
 45
0.0
1001
ACAD
1000
AcDbSavedByObjectVersion
1070
     0
  0
VISUALSTYLE
  5
36F
102
{ACAD_XDICTIONARY
360
3D5
102
}
102
{ACAD_REACTORS
330
366
102
}
330
366
100
AcDbVisualStyle
  2
Conceptual
 70
     9
 71
     3
 72
     2
 73
     0
 90
        0
 40
-0.6
 41
-30.0
 62
     5
 63
     7
 74
     2
 91
        2
 64
     7
 65
   257
 75
     1
175
     1
 42
179.0
 92
        8
 66
     7
 43
1.0
 76
     1
 77
     6
 78
     2
 67
     7
 79
     3
170
     0
171
     0
290
     0
174
     0
 93
        1
 44
0.0
173
     0
291
     0
 45
0.0
1001
ACAD
1000
AcDbSavedByObjectVersion
1070
     0
  0
VISUALSTYLE
  5
371
102
{ACAD_XDICTIONARY
360
3D9
102
}
102
{ACAD_REACTORS
330
366
102
}
330
366
100
AcDbVisualStyle
  2
Dim
 70
    11
 71
     2
 72
     2
 73
     0
 90
        0
 40
-0.6
 41
-30.0
 62
     5
 63
     7
 74
     1
 91
        4
 64
     7
 65
   257
 75
     1
175
     1
 42
1.0
 92
        8
 66
     7
 43
1.0
 76
     1
 77
     6
 78
     2
 67
     7
 79
     5
170
     0
171
     0
290
     0
174
     0
 93
        1
 44
-50.0
173
     0
291
     1
 45
0.0
1001
ACAD
1000
AcDbSavedByObjectVersion
1070
     0
  0
VISUALSTYLE
  5
37E
102
{ACAD_XDICTIONARY
360
3F3
102
}
102
{ACAD_REACTORS
330
366
102
}
330
366
100
AcDbVisualStyle
  2
EdgeColorOff
 70
    22
 71
     2
 72
     2
 73
     0
 90
        0
 40
-0.6
 41
-30.0
 62
     5
 63
     7
 74
     1
 91
        4
 64
     7
 65
   257
 75
     1
175
     1
 42
1.0
 92
        8
 66
     7
 43
1.0
 76
     1
 77
     6
 78
     2
 67
     7
 79
     5
170
     0
171
     0
290
     0
174
     0
 93
        1
 44
0.0
173
     0
291
     1
 45
0.0
1001
ACAD
1000
AcDbSavedByObjectVersion
1070
     0
  0
VISUALSTYLE
  5
375
102
{ACAD_XDICTIONARY
360
3E1
102
}
102
{ACAD_REACTORS
330
366
102
}
330
366
100
AcDbVisualStyle
  2
Facepattern
 70
    15
 71
     2
 72
     2
 73
     0
 90
        0
 40
-0.6
 41
-30.0
 62
     5
 63
     7
 74
     1
 91
        4
 64
     7
 65
   257
 75
     1
175
     1
 42
1.0
 92
        8
 66
     7
 43
1.0
 76
     1
 77
     6
 78
     2
 67
     7
 79
     5
170
     0
171
     0
290
     0
174
     0
 93
        1
 44
0.0
173
     0
291
     1
 45
0.0
1001
ACAD
1000
AcDbSavedByObjectVersion
1070
     0
  0
VISUALSTYLE
  5
367
102
{ACAD_XDICTIONARY
360
3C5
102
}
102
{ACAD_REACTORS
330
366
102
}
330
366
100
AcDbVisualStyle
  2
Flat
 70
     0
 71
     2
 72
     1
 73
     1
 90
        2
 40
-0.6
 41
30.0
 62
     5
 63
     7
 74
     0
 91
        0
 64
     7
 65
   257
 75
     1
175
     1
 42
1.0
 92
        8
 66
     7
 43
1.0
 76
     1
 77
     6
 78
     2
 67
     7
 79
     5
170
     0
171
     0
290
     0
174
     0
 93
       13
 44
0.0
173
     0
291
     1
 45
0.0
1001
ACAD
1000
AcDbSavedByObjectVersion
1070
     0
  0
VISUALSTYLE
  5
368
102
{ACAD_XDICTIONARY
360
3C7
102
}
102
{ACAD_REACTORS
330
366
102
}
330
366
100
AcDbVisualStyle
  2
FlatWithEdges
 70
     1
 71
     2
 72
     1
 73
     1
 90
        2
 40
-0.6
 41
30.0
 62
     5
 63
     7
 74
     1
 91
        0
 64
     7
 65
   257
 75
     1
175
     1
 42
1.0
 92
        0
 66
   257
 43
1.0
 76
     1
 77
     6
 78
     2
 67
     7
 79
     5
170
     0
171
     0
290
     0
174
     0
 93
       13
 44
0.0
173
     0
291
     1
 45
0.0
1001
ACAD
1000
AcDbSavedByObjectVersion
1070
     0
  0
VISUALSTYLE
  5
369
102
{ACAD_XDICTIONARY
360
3C9
102
}
102
{ACAD_REACTORS
330
366
102
}
330
366
100
AcDbVisualStyle
  2
Gouraud
 70
     2
 71
     2
 72
     2
 73
     1
 90
        2
 40
-0.6
 41
30.0
 62
     5
 63
     7
 74
     0
 91
        0
 64
     7
 65
   257
 75
     1
175
     1
 42
1.0
 92
        0
 66
     7
 43
1.0
 76
     1
 77
     6
 78
     2
 67
     7
 79
     5
170
     0
171
     0
290
     0
174
     0
 93
       13
 44
0.0
173
     0
291
     1
 45
0.0
1001
ACAD
1000
AcDbSavedByObjectVersion
1070
     0
  0
VISUALSTYLE
  5
36A
102
{ACAD_XDICTIONARY
360
3CB
102
}
102
{ACAD_REACTORS
330
366
102
}
330
366
100
AcDbVisualStyle
  2
GouraudWithEdges
 70
     3
 71
     2
 72
     2
 73
     1
 90
        2
 40
-0.6
 41
30.0
 62
     5
 63
     7
 74
     1
 91
        0
 64
     7
 65
   257
 75
     1
175
     1
 42
1.0
 92
        0
 66
   257
 43
1.0
 76
     1
 77
     6
 78
     2
 67
     7
 79
     5
170
     0
171
     0
290
     0
174
     0
 93
       13
 44
0.0
173
     0
291
     1
 45
0.0
1001
ACAD
1000
AcDbSavedByObjectVersion
1070
     0
  0
VISUALSTYLE
  5
36E
102
{ACAD_XDICTIONARY
360
3D3
102
}
102
{ACAD_REACTORS
330
366
102
}
330
366
100
AcDbVisualStyle
  2
Hidden
 70
     6
 71
     1
 72
     2
 73
     2
 90
        0
 40
-0.6
 41
-30.0
 62
     5
 63
     7
 74
     2
 91
        2
 64
     7
 65
   257
 75
     2
175
     1
 42
40.0
 92
        0
 66
   257
 43
1.0
 76
     1
 77
     6
 78
     2
 67
     7
 79
     3
170
     0
171
     0
290
     0
174
     0
 93
        1
 44
0.0
173
     0
291
     0
 45
0.0
1001
ACAD
1000
AcDbSavedByObjectVersion
1070
     0
  0
VISUALSTYLE
  5
37C
102
{ACAD_XDICTIONARY
360
3EF
102
}
102
{ACAD_REACTORS
330
366
102
}
330
366
100
AcDbVisualStyle
  2
JitterOff
 70
    20
 71
     2
 72
     2
 73
     0
 90
        0
 40
-0.6
 41
-30.0
 62
     5
 63
     7
 74
     1
 91
        4
 64
     7
 65
   257
 75
     1
175
     1
 42
1.0
 92
       10
 66
     7
 43
1.0
 76
     1
 77
     6
 78
     2
 67
     7
 79
     5
170
     0
171
     0
290
     0
174
     0
 93
        1
 44
0.0
173
     0
291
     1
 45
0.0
1001
ACAD
1000
AcDbSavedByObjectVersion
1070
     0
  0
VISUALSTYLE
  5
374
102
{ACAD_XDICTIONARY
360
3DF
102
}
102
{ACAD_REACTORS
330
366
102
}
330
366
100
AcDbVisualStyle
  2
Linepattern
 70
    14
 71
     2
 72
     2
 73
     0
 90
        0
 40
-0.6
 41
-30.0
 62
     5
 63
     7
 74
     1
 91
        4
 64
     7
 65
   257
 75
     7
175
     7
 42
1.0
 92
        8
 66
     7
 43
1.0
 76
     1
 77
     6
 78
     2
 67
     7
 79
     5
170
     0
171
     0
290
     0
174
     0
 93
        1
 44
0.0
173
     0
291
     1
 45
0.0
1001
ACAD
1000
AcDbSavedByObjectVersion
1070
     0
  0
VISUALSTYLE
  5
37D
102
{ACAD_XDICTIONARY
360
3F1
102
}
102
{ACAD_REACTORS
330
366
102
}
330
366
100
AcDbVisualStyle
  2
OverhangOff
 70
    21
 71
     2
 72
     2
 73
     0
 90
        0
 40
-0.6
 41
-30.0
 62
     5
 63
     7
 74
     1
 91
        4
 64
     7
 65
   257
 75
     1
175
     1
 42
1.0
 92
        9
 66
     7
 43
1.0
 76
     1
 77
     6
 78
     2
 67
     7
 79
     5
170
     0
171
     0
290
     0
174
     0
 93
        1
 44
0.0
173
     0
291
     1
 45
0.0
1001
ACAD
1000
AcDbSavedByObjectVersion
1070
     0
  0
VISUALSTYLE
  5
370
102
{ACAD_XDICTIONARY
360
3D7
102
}
102
{ACAD_REACTORS
330
366
102
}
330
366
100
AcDbVisualStyle
  2
Realistic
 70
     8
 71
     2
 72
     3
 73
     0
 90
        2
 40
-0.6
 41
30.0
 62
     5
 63
     7
 74
     0
 91
        0
 64
     7
 65
   257
 75
     1
175
     1
 42
1.0
 92
        8
 66
   257
 43
1.0
 76
     1
 77
     6
 78
     2
 67
     7
 79
     3
170
     0
171
     0
290
     0
174
     0
 93
       13
 44
0.0
173
     0
291
     0
 45
0.0
1001
ACAD
1000
AcDbSavedByObjectVersion
1070
     0
  0
VISUALSTYLE
  5
37B
102
{ACAD_XDICTIONARY
360
3ED
102
}
102
{ACAD_REACTORS
330
366
102
}
330
366
100
AcDbVisualStyle
  2
Shaded
 70
    27
 71
     2
 72
     2
 73
     1
 90
        2
 40
-0.6
 41
30.0
 62
     5
 63
     7
 74
     0
 91
        4
 64
     7
 65
   257
 75
     1
175
     1
 42
1.0
 92
        8
 66
   257
 43
1.0
 76
     1
 77
     6
 78
     2
 67
     8
 79
     3
170
     0
171
     0
290
     0
174
     0
 93
        5
 44
0.0
173
     0
291
     0
 45
0.0
1001
ACAD
1000
AcDbSavedByObjectVersion
1070
     0
  0
VISUALSTYLE
  5
37A
102
{ACAD_XDICTIONARY
360
3EB
102
}
102
{ACAD_REACTORS
330
366
102
}
330
366
100
AcDbVisualStyle
  2
Shaded with edges
 70
    26
 71
     2
 72
     2
 73
     1
 90
        2
 40
-0.6
 41
30.0
 62
     5
 63
     7
 74
     1
 91
       10
 64
     7
 65
   257
 75
     2
175
     1
 42
1.0
 92
        8
 66
   257
 43
1.0
 76
     1
 77
     6
 78
     2
 67
     7
 79
     3
170
     0
171
     0
290
     0
174
     0
 93
        5
 44
0.0
173
     0
291
     0
 45
0.0
1001
ACAD
1000
AcDbSavedByObjectVersion
1070
     0
  0
VISUALSTYLE
  5
377
102
{ACAD_XDICTIONARY
360
3E5
102
}
102
{ACAD_REACTORS
330
366
102
}
330
366
100
AcDbVisualStyle
  2
Shades of Gray
 70
    23
 71
     2
 72
     2
 73
     3
 90
        0
 40
-0.6
 41
-30.0
 62
     5
 63
     7
 74
     2
 91
        2
 64
     7
 65
     7
 75
     1
175
     1
 42
40.0
 92
        8
 66
     7
 43
1.0
 76
     1
 77
     6
 78
     2
 67
     7
 79
     3
170
     0
171
     0
290
     0
174
     0
 93
        1
 44
0.0
173
     0
291
     0
 45
0.0
1001
ACAD
1000
AcDbSavedByObjectVersion
1070
     0
  0
VISUALSTYLE
  5
378
102
{ACAD_XDICTIONARY
360
3E7
102
}
102
{ACAD_REACTORS
330
366
102
}
330
366
100
AcDbVisualStyle
  2
Sketchy
 70
    24
 71
     1
 72
     2
 73
     2
 90
        0
 40
-0.6
 41
-30.0
 62
     5
 63
     7
 74
     2
 91
        2
 64
     7
 65
     7
 75
     1
175
     1
 42
40.0
 92
       11
 66
     7
 43
1.0
 76
     1
 77
     6
 78
     2
 67
     7
 79
     6
170
     0
171
     0
290
     0
174
     0
 93
        1
 44
0.0
173
     0
291
     0
 45
0.0
1001
ACAD
1000
AcDbSavedByObjectVersion
1070
     0
  0
VISUALSTYLE
  5
373
102
{ACAD_XDICTIONARY
360
3DD
102
}
102
{ACAD_REACTORS
330
366
102
}
330
366
100
AcDbVisualStyle
  2
Thicken
 70
    13
 71
     2
 72
     2
 73
     0
 90
        0
 40
-0.6
 41
-30.0
 62
     5
 63
     7
 74
     1
 91
        4
 64
     7
 65
   257
 75
     1
175
     1
 42
1.0
 92
       12
 66
     7
 43
1.0
 76
     1
 77
     6
 78
     2
 67
     7
 79
     5
170
     0
171
     0
290
     0
174
     0
 93
        1
 44
0.0
173
     0
291
     1
 45
0.0
1001
ACAD
1000
AcDbSavedByObjectVersion
1070
     0
  0
VISUALSTYLE
  5
36D
102
{ACAD_XDICTIONARY
360
3D1
102
}
102
{ACAD_REACTORS
330
366
102
}
330
366
100
AcDbVisualStyle
  2
Wireframe
 70
     5
 71
     0
 72
     2
 73
     0
 90
        0
 40
-0.6
 41
-30.0
 62
     5
 63
     7
 74
     1
 91
        4
 64
     7
 65
   257
 75
     1
175
     1
 42
1.0
 92
        0
 66
   257
 43
1.0
 76
     1
 77
     6
 78
     2
 67
     7
 79
     3
170
     0
171
     0
290
     0
174
     0
 93
        1
 44
0.0
173
     0
291
     0
 45
0.0
1001
ACAD
1000
AcDbSavedByObjectVersion
1070
     0
  0
VISUALSTYLE
  5
379
102
{ACAD_XDICTIONARY
360
3E9
102
}
102
{ACAD_REACTORS
330
366
102
}
330
366
100
AcDbVisualStyle
  2
X-Ray
 70
    25
 71
     2
 72
     2
 73
     1
 90
        1
 40
0.5
 41
-30.0
 62
     5
 63
     7
 74
     1
 91
        0
 64
     7
 65
   257
 75
     1
175
     1
 42
1.0
 92
        8
 66
     7
 43
1.0
 76
     1
 77
     6
 78
     2
 67
     7
 79
     3
170
     0
171
     0
290
     0
174
     0
 93
       13
 44
0.0
173
     0
291
     0
 45
0.0
1001
ACAD
1000
AcDbSavedByObjectVersion
1070
     0
  0
DICTIONARYVAR
  5
3B9
102
{ACAD_REACTORS
330
3B6
102
}
330
3B6
100
DictionaryVariables
280
     0
  1
1:1
  0
DICTIONARYVAR
  5
3B8
102
{ACAD_REACTORS
330
3B6
102
}
330
3B6
100
DictionaryVariables
280
     0
  1
STANDARD
  0
DICTIONARYVAR
  5
3B7
102
{ACAD_REACTORS
330
3B6
102
}
330
3B6
100
DictionaryVariables
280
     0
  1
STANDARD
  0
DICTIONARYVAR
  5
3BC
102
{ACAD_REACTORS
330
3B6
102
}
330
3B6
100
DictionaryVariables
280
     0
  1
1
  0
DICTIONARYVAR
  5
3BB
102
{ACAD_REACTORS
330
3B6
102
}
330
3B6
100
DictionaryVariables
280
     0
  1
0
  0
DICTIONARYVAR
  5
3BA
102
{ACAD_REACTORS
330
3B6
102
}
330
3B6
100
DictionaryVariables
280
     0
  1
127
  0
DICTIONARYVAR
  5
3BD
102
{ACAD_REACTORS
330
3B6
102
}
330
3B6
100
DictionaryVariables
280
     0
  1
2
  0
XRECORD
  5
3B5
102
{ACAD_REACTORS
330
3B3
102
}
330
3B3
100
AcDbXrecord
280
     1
330
CF
330
D8
330
E1
330
EA
330
F3
330
FA
330
109
330
112
330
11B
330
122
330
131
330
138
330
173
330
174
330
17E
330
187
330
18C
330
18F
330
197
330
198
330
19F
330
1A2
330
1A5
330
1A8
330
1AB
330
1AE
330
1B1
330
1B4
330
1B7
330
1BA
330
1BD
  0
DICTIONARY
  5
3F9
330
399
100
AcDbDictionary
280
     1
281
     1
  3
ACAD_XREC_ROUNDTRIP
360
3FA
  0
DICTIONARY
  5
3F7
330
398
100
AcDbDictionary
280
     1
281
     1
  3
ACAD_XREC_ROUNDTRIP
360
3F8
  0
DICTIONARY
  5
357
330
356
100
AcDbDictionary
280
     1
281
     1
  3
ACAD_XREC_ROUNDTRIP
360
3C3
  3
BUMPTILE
360
359
  3
DIFFUSETILE
360
358
  3
OPACITYTILE
360
35C
  3
REFLECTIONTILE
360
35B
  3
REFRACTIONTILE
360
35D
  3
SPECULARTILE
360
35A
  0
DICTIONARY
  5
34F
330
34E
100
AcDbDictionary
280
     1
281
     1
  3
ACAD_XREC_ROUNDTRIP
360
3C2
  3
BUMPTILE
360
351
  3
DIFFUSETILE
360
350
  3
OPACITYTILE
360
354
  3
REFLECTIONTILE
360
353
  3
REFRACTIONTILE
360
355
  3
SPECULARTILE
360
352
  0
DICTIONARY
  5
35F
330
35E
100
AcDbDictionary
280
     1
281
     1
  3
ACAD_XREC_ROUNDTRIP
360
3C4
  3
BUMPTILE
360
361
  3
DIFFUSETILE
360
360
  3
OPACITYTILE
360
364
  3
REFLECTIONTILE
360
363
  3
REFRACTIONTILE
360
365
  3
SPECULARTILE
360
362
  0
DICTIONARY
  5
3BE
330
381
100
AcDbDictionary
280
     1
281
     1
  3
ACAD_ROUNDTRIP_2008_TABLESTYLE_CELLSTYLEMAP
360
3BF
  3
ACAD_XREC_ROUNDTRIP
360
3F5
  0
DICTIONARY
  5
3CF
330
36C
100
AcDbDictionary
280
     1
281
     1
  3
ACAD_XREC_ROUNDTRIP
360
3D0
  0
DICTIONARY
  5
3CD
330
36B
100
AcDbDictionary
280
     1
281
     1
  3
ACAD_XREC_ROUNDTRIP
360
3CE
  0
DICTIONARY
  5
3DB
330
372
100
AcDbDictionary
280
     1
281
     1
  3
ACAD_XREC_ROUNDTRIP
360
3DC
  0
DICTIONARY
  5
3E3
330
376
100
AcDbDictionary
280
     1
281
     1
  3
ACAD_XREC_ROUNDTRIP
360
3E4
  0
DICTIONARY
  5
3D5
330
36F
100
AcDbDictionary
280
     1
281
     1
  3
ACAD_XREC_ROUNDTRIP
360
3D6
  0
DICTIONARY
  5
3D9
330
371
100
AcDbDictionary
280
     1
281
     1
  3
ACAD_XREC_ROUNDTRIP
360
3DA
  0
DICTIONARY
  5
3F3
330
37E
100
AcDbDictionary
280
     1
281
     1
  3
ACAD_XREC_ROUNDTRIP
360
3F4
  0
DICTIONARY
  5
3E1
330
375
100
AcDbDictionary
280
     1
281
     1
  3
ACAD_XREC_ROUNDTRIP
360
3E2
  0
DICTIONARY
  5
3C5
330
367
100
AcDbDictionary
280
     1
281
     1
  3
ACAD_XREC_ROUNDTRIP
360
3C6
  0
DICTIONARY
  5
3C7
330
368
100
AcDbDictionary
280
     1
281
     1
  3
ACAD_XREC_ROUNDTRIP
360
3C8
  0
DICTIONARY
  5
3C9
330
369
100
AcDbDictionary
280
     1
281
     1
  3
ACAD_XREC_ROUNDTRIP
360
3CA
  0
DICTIONARY
  5
3CB
330
36A
100
AcDbDictionary
280
     1
281
     1
  3
ACAD_XREC_ROUNDTRIP
360
3CC
  0
DICTIONARY
  5
3D3
330
36E
100
AcDbDictionary
280
     1
281
     1
  3
ACAD_XREC_ROUNDTRIP
360
3D4
  0
DICTIONARY
  5
3EF
330
37C
100
AcDbDictionary
280
     1
281
     1
  3
ACAD_XREC_ROUNDTRIP
360
3F0
  0
DICTIONARY
  5
3DF
330
374
100
AcDbDictionary
280
     1
281
     1
  3
ACAD_XREC_ROUNDTRIP
360
3E0
  0
DICTIONARY
  5
3F1
330
37D
100
AcDbDictionary
280
     1
281
     1
  3
ACAD_XREC_ROUNDTRIP
360
3F2
  0
DICTIONARY
  5
3D7
330
370
100
AcDbDictionary
280
     1
281
     1
  3
ACAD_XREC_ROUNDTRIP
360
3D8
  0
DICTIONARY
  5
3ED
330
37B
100
AcDbDictionary
280
     1
281
     1
  3
ACAD_XREC_ROUNDTRIP
360
3EE
  0
DICTIONARY
  5
3EB
330
37A
100
AcDbDictionary
280
     1
281
     1
  3
ACAD_XREC_ROUNDTRIP
360
3EC
  0
DICTIONARY
  5
3E5
330
377
100
AcDbDictionary
280
     1
281
     1
  3
ACAD_XREC_ROUNDTRIP
360
3E6
  0
DICTIONARY
  5
3E7
330
378
100
AcDbDictionary
280
     1
281
     1
  3
ACAD_XREC_ROUNDTRIP
360
3E8
  0
DICTIONARY
  5
3DD
330
373
100
AcDbDictionary
280
     1
281
     1
  3
ACAD_XREC_ROUNDTRIP
360
3DE
  0
DICTIONARY
  5
3D1
330
36D
100
AcDbDictionary
280
     1
281
     1
  3
ACAD_XREC_ROUNDTRIP
360
3D2
  0
DICTIONARY
  5
3E9
330
379
100
AcDbDictionary
280
     1
281
     1
  3
ACAD_XREC_ROUNDTRIP
360
3EA
  0
XRECORD
  5
3FA
102
{ACAD_REACTORS
330
3F9
102
}
330
3F9
100
AcDbXrecord
280
     1
102
SHADEPLOT
 70
     0
102
SHADEPLOTRESLEVEL
 70
     2
102
SHADEPLOTCUSTOMDPI
 70
   300
  0
XRECORD
  5
3F8
102
{ACAD_REACTORS
330
3F7
102
}
330
3F7
100
AcDbXrecord
280
     1
102
SHADEPLOT
 70
     0
102
SHADEPLOTRESLEVEL
 70
     2
102
SHADEPLOTCUSTOMDPI
 70
   300
  0
XRECORD
  5
3C3
102
{ACAD_REACTORS
330
357
102
}
330
357
100
AcDbXrecord
280
     1
102
MATERIAL
148
0.0
149
0.0
149
0.0
 93
        0
 94
      127
282
     0
 72
     0
 77
     0
171
     0
175
     0
179
     0
273
     0
  0
XRECORD
  5
359
102
{ACAD_REACTORS
330
357
102
}
330
357
100
AcDbXrecord
280
     1
270
     1
271
     1
  0
XRECORD
  5
358
102
{ACAD_REACTORS
330
357
102
}
330
357
100
AcDbXrecord
280
     1
270
     1
271
     1
  0
XRECORD
  5
35C
102
{ACAD_REACTORS
330
357
102
}
330
357
100
AcDbXrecord
280
     1
270
     1
271
     1
  0
XRECORD
  5
35B
102
{ACAD_REACTORS
330
357
102
}
330
357
100
AcDbXrecord
280
     1
270
     1
271
     1
  0
XRECORD
  5
35D
102
{ACAD_REACTORS
330
357
102
}
330
357
100
AcDbXrecord
280
     1
270
     1
271
     1
  0
XRECORD
  5
35A
102
{ACAD_REACTORS
330
357
102
}
330
357
100
AcDbXrecord
280
     1
270
     1
271
     1
  0
XRECORD
  5
3C2
102
{ACAD_REACTORS
330
34F
102
}
330
34F
100
AcDbXrecord
280
     1
102
MATERIAL
148
0.0
149
0.0
149
0.0
 93
        0
 94
      127
282
     0
 72
     0
 77
     0
171
     0
175
     0
179
     0
273
     0
  0
XRECORD
  5
351
102
{ACAD_REACTORS
330
34F
102
}
330
34F
100
AcDbXrecord
280
     1
270
     1
271
     1
  0
XRECORD
  5
350
102
{ACAD_REACTORS
330
34F
102
}
330
34F
100
AcDbXrecord
280
     1
270
     1
271
     1
  0
XRECORD
  5
354
102
{ACAD_REACTORS
330
34F
102
}
330
34F
100
AcDbXrecord
280
     1
270
     1
271
     1
  0
XRECORD
  5
353
102
{ACAD_REACTORS
330
34F
102
}
330
34F
100
AcDbXrecord
280
     1
270
     1
271
     1
  0
XRECORD
  5
355
102
{ACAD_REACTORS
330
34F
102
}
330
34F
100
AcDbXrecord
280
     1
270
     1
271
     1
  0
XRECORD
  5
352
102
{ACAD_REACTORS
330
34F
102
}
330
34F
100
AcDbXrecord
280
     1
270
     1
271
     1
  0
XRECORD
  5
3C4
102
{ACAD_REACTORS
330
35F
102
}
330
35F
100
AcDbXrecord
280
     1
102
MATERIAL
148
0.0
149
0.0
149
0.0
 93
        0
 94
      127
282
     0
 72
     0
 77
     0
171
     0
175
     0
179
     0
273
     0
  0
XRECORD
  5
361
102
{ACAD_REACTORS
330
35F
102
}
330
35F
100
AcDbXrecord
280
     1
270
     1
271
     1
  0
XRECORD
  5
360
102
{ACAD_REACTORS
330
35F
102
}
330
35F
100
AcDbXrecord
280
     1
270
     1
271
     1
  0
XRECORD
  5
364
102
{ACAD_REACTORS
330
35F
102
}
330
35F
100
AcDbXrecord
280
     1
270
     1
271
     1
  0
XRECORD
  5
363
102
{ACAD_REACTORS
330
35F
102
}
330
35F
100
AcDbXrecord
280
     1
270
     1
271
     1
  0
XRECORD
  5
365
102
{ACAD_REACTORS
330
35F
102
}
330
35F
100
AcDbXrecord
280
     1
270
     1
271
     1
  0
XRECORD
  5
362
102
{ACAD_REACTORS
330
35F
102
}
330
35F
100
AcDbXrecord
280
     1
270
     1
271
     1
  0
CELLSTYLEMAP
  5
3BF
102
{ACAD_REACTORS
330
3BE
102
}
330
3BE
100
AcDbCellStyleMap
 90
        3
300
CELLSTYLE
  1
TABLEFORMAT_BEGIN
 90
        5
170
     1
 91
        0
 92
    32768
 62
   257
 93
        1
300
CONTENTFORMAT
  1
CONTENTFORMAT_BEGIN
 90
        0
 91
        0
 92
      512
 93
        0
300

 40
0.0
140
1.0
 94
        5
 62
     0
340
17
144
6.0
309
CONTENTFORMAT_END
171
     1
301
MARGIN
  1
CELLMARGIN_BEGIN
 40
1.5
 40
1.5
 40
1.5
 40
1.5
 40
4.5
 40
4.5
309
CELLMARGIN_END
 94
        6
 95
        1
302
GRIDFORMAT
  1
GRIDFORMAT_BEGIN
 90
        0
 91
        1
 62
     0
 92
       -2
340
0
 93
        0
 40
1.125
309
GRIDFORMAT_END
 95
        2
302
GRIDFORMAT
  1
GRIDFORMAT_BEGIN
 90
        0
 91
        1
 62
     0
 92
       -2
340
0
 93
        0
 40
1.125
309
GRIDFORMAT_END
 95
        4
302
GRIDFORMAT
  1
GRIDFORMAT_BEGIN
 90
        0
 91
        1
 62
     0
 92
       -2
340
0
 93
        0
 40
1.125
309
GRIDFORMAT_END
 95
        8
302
GRIDFORMAT
  1
GRIDFORMAT_BEGIN
 90
        0
 91
        1
 62
     0
 92
       -2
340
0
 93
        0
 40
1.125
309
GRIDFORMAT_END
 95
       16
302
GRIDFORMAT
  1
GRIDFORMAT_BEGIN
 90
        0
 91
        1
 62
     0
 92
       -2
340
0
 93
        0
 40
1.125
309
GRIDFORMAT_END
 95
       32
302
GRIDFORMAT
  1
GRIDFORMAT_BEGIN
 90
        0
 91
        1
 62
     0
 92
       -2
340
0
 93
        0
 40
1.125
309
GRIDFORMAT_END
309
TABLEFORMAT_END
  1
CELLSTYLE_BEGIN
 90
        1
 91
        1
300
_TITLE
309
CELLSTYLE_END
300
CELLSTYLE
  1
TABLEFORMAT_BEGIN
 90
        5
170
     1
 91
        0
 92
        0
 62
   257
 93
        1
300
CONTENTFORMAT
  1
CONTENTFORMAT_BEGIN
 90
        0
 91
        0
 92
      512
 93
        0
300

 40
0.0
140
1.0
 94
        5
 62
     0
340
17
144
4.5
309
CONTENTFORMAT_END
171
     1
301
MARGIN
  1
CELLMARGIN_BEGIN
 40
1.5
 40
1.5
 40
1.5
 40
1.5
 40
4.5
 40
4.5
309
CELLMARGIN_END
 94
        6
 95
        1
302
GRIDFORMAT
  1
GRIDFORMAT_BEGIN
 90
        0
 91
        1
 62
     0
 92
       -2
340
0
 93
        0
 40
1.125
309
GRIDFORMAT_END
 95
        2
302
GRIDFORMAT
  1
GRIDFORMAT_BEGIN
 90
        0
 91
        1
 62
     0
 92
       -2
340
0
 93
        0
 40
1.125
309
GRIDFORMAT_END
 95
        4
302
GRIDFORMAT
  1
GRIDFORMAT_BEGIN
 90
        0
 91
        1
 62
     0
 92
       -2
340
0
 93
        0
 40
1.125
309
GRIDFORMAT_END
 95
        8
302
GRIDFORMAT
  1
GRIDFORMAT_BEGIN
 90
        0
 91
        1
 62
     0
 92
       -2
340
0
 93
        0
 40
1.125
309
GRIDFORMAT_END
 95
       16
302
GRIDFORMAT
  1
GRIDFORMAT_BEGIN
 90
        0
 91
        1
 62
     0
 92
       -2
340
0
 93
        0
 40
1.125
309
GRIDFORMAT_END
 95
       32
302
GRIDFORMAT
  1
GRIDFORMAT_BEGIN
 90
        0
 91
        1
 62
     0
 92
       -2
340
0
 93
        0
 40
1.125
309
GRIDFORMAT_END
309
TABLEFORMAT_END
  1
CELLSTYLE_BEGIN
 90
        2
 91
        1
300
_HEADER
309
CELLSTYLE_END
300
CELLSTYLE
  1
TABLEFORMAT_BEGIN
 90
        5
170
     1
 91
        0
 92
        0
 62
   257
 93
        1
300
CONTENTFORMAT
  1
CONTENTFORMAT_BEGIN
 90
        0
 91
        0
 92
      512
 93
        0
300

 40
0.0
140
1.0
 94
        2
 62
     0
340
17
144
4.5
309
CONTENTFORMAT_END
171
     1
301
MARGIN
  1
CELLMARGIN_BEGIN
 40
1.5
 40
1.5
 40
1.5
 40
1.5
 40
4.5
 40
4.5
309
CELLMARGIN_END
 94
        6
 95
        1
302
GRIDFORMAT
  1
GRIDFORMAT_BEGIN
 90
        0
 91
        1
 62
     0
 92
       -2
340
0
 93
        0
 40
1.125
309
GRIDFORMAT_END
 95
        2
302
GRIDFORMAT
  1
GRIDFORMAT_BEGIN
 90
        0
 91
        1
 62
     0
 92
       -2
340
0
 93
        0
 40
1.125
309
GRIDFORMAT_END
 95
        4
302
GRIDFORMAT
  1
GRIDFORMAT_BEGIN
 90
        0
 91
        1
 62
     0
 92
       -2
340
0
 93
        0
 40
1.125
309
GRIDFORMAT_END
 95
        8
302
GRIDFORMAT
  1
GRIDFORMAT_BEGIN
 90
        0
 91
        1
 62
     0
 92
       -2
340
0
 93
        0
 40
1.125
309
GRIDFORMAT_END
 95
       16
302
GRIDFORMAT
  1
GRIDFORMAT_BEGIN
 90
        0
 91
        1
 62
     0
 92
       -2
340
0
 93
        0
 40
1.125
309
GRIDFORMAT_END
 95
       32
302
GRIDFORMAT
  1
GRIDFORMAT_BEGIN
 90
        0
 91
        1
 62
     0
 92
       -2
340
0
 93
        0
 40
1.125
309
GRIDFORMAT_END
309
TABLEFORMAT_END
  1
CELLSTYLE_BEGIN
 90
        3
 91
        2
300
_DATA
309
CELLSTYLE_END
  0
XRECORD
  5
3F5
102
{ACAD_REACTORS
330
3BE
102
}
330
3BE
100
AcDbXrecord
280
     1
102
ACAD_ROUNDTRIP_PRE2007_TABLESTYLE
 90
      512
 91
        0
  1

 92
      512
 93
        0
  2

 94
      512
 95
        0
  3

  0
XRECORD
  5
3D0
102
{ACAD_REACTORS
330
3CF
102
}
330
3CF
100
AcDbXrecord
280
     1
102
RTVSPropertyOp0
 70
     1
102
RTVSPropertyOp1
 70
     1
102
RTVSPropertyOp2
 70
     1
102
RTVSPropertyOp3
 70
     1
102
RTVSPropertyOp4
 70
     1
102
RTVSPropertyOp5
 70
     1
102
RTVSPropertyOp6
 70
     1
102
RTVSPropertyOp7
 70
     1
102
RTVSPropertyOp8
 70
     1
102
RTVSPropertyOp9
 70
     1
102
RTVSPropertyOp10
 70
     1
102
RTVSPropertyOp11
 70
     1
102
RTVSPropertyOp12
 70
     1
102
RTVSPropertyOp13
 70
     1
102
RTVSPropertyOp14
 70
     1
102
RTVSPropertyOp15
 70
     1
102
RTVSPropertyOp16
 70
     1
102
RTVSPropertyOp17
 70
     1
102
RTVSPropertyOp18
 70
     1
102
RTVSPropertyOp19
 70
     1
102
RTVSPropertyOp20
 70
     1
102
RTVSPropertyOp21
 70
     1
102
RTVSPropertyOp22
 70
     1
102
RTVSPropertyOp23
 70
     1
102
RTVSPropertyOp24
 70
     1
102
RTVSPropertyOp25
 70
     1
102
RTVSPropertyOp26
 70
     1
102
RTVSPropertyOp27
 70
     1
102
RTVSPropertyOp28
 70
     1
102
RTVSPropertyOp29
 70
     1
102
RTVSPropertyOp30
 70
     1
102
RTVSPropertyOp31
 70
     1
102
RTVSPropertyOp32
 70
     1
  0
XRECORD
  5
3CE
102
{ACAD_REACTORS
330
3CD
102
}
330
3CD
100
AcDbXrecord
280
     1
102
RTVSPropertyOp0
 70
     1
102
RTVSPropertyOp1
 70
     1
102
RTVSPropertyOp2
 70
     1
102
RTVSPropertyOp3
 70
     1
102
RTVSPropertyOp4
 70
     1
102
RTVSPropertyOp5
 70
     1
102
RTVSPropertyOp6
 70
     1
102
RTVSPropertyOp7
 70
     1
102
RTVSPropertyOp8
 70
     1
102
RTVSPropertyOp9
 70
     1
102
RTVSPropertyOp10
 70
     1
102
RTVSPropertyOp11
 70
     1
102
RTVSPropertyOp12
 70
     1
102
RTVSPropertyOp13
 70
     1
102
RTVSPropertyOp14
 70
     1
102
RTVSPropertyOp15
 70
     1
102
RTVSPropertyOp16
 70
     1
102
RTVSPropertyOp17
 70
     1
102
RTVSPropertyOp18
 70
     1
102
RTVSPropertyOp19
 70
     1
102
RTVSPropertyOp20
 70
     1
102
RTVSPropertyOp21
 70
     1
102
RTVSPropertyOp22
 70
     1
102
RTVSPropertyOp23
 70
     1
102
RTVSPropertyOp24
 70
     1
102
RTVSPropertyOp25
 70
     1
102
RTVSPropertyOp26
 70
     1
102
RTVSPropertyOp27
 70
     1
102
RTVSPropertyOp28
 70
     1
102
RTVSPropertyOp29
 70
     1
102
RTVSPropertyOp30
 70
     1
102
RTVSPropertyOp31
 70
     1
102
RTVSPropertyOp32
 70
     1
  0
XRECORD
  5
3DC
102
{ACAD_REACTORS
330
3DB
102
}
330
3DB
100
AcDbXrecord
280
     1
102
RTVSPropertyOp0
 70
     1
102
RTVSPropertyOp1
 70
     1
102
RTVSPropertyOp2
 70
     1
102
RTVSPropertyOp3
 70
     1
102
RTVSPropertyOp4
 70
     1
102
RTVSPropertyOp5
 70
     1
102
RTVSPropertyOp6
 70
     1
102
RTVSPropertyOp7
 70
     1
102
RTVSPropertyOp8
 70
     1
102
RTVSPropertyOp9
 70
     1
102
RTVSPropertyOp10
 70
     1
102
RTVSPropertyOp11
 70
     1
102
RTVSPropertyOp12
 70
     1
102
RTVSPropertyOp13
 70
     1
102
RTVSPropertyOp14
 70
     1
102
RTVSPropertyOp15
 70
     1
102
RTVSPropertyOp16
 70
     1
102
RTVSPropertyOp17
 70
     1
102
RTVSPropertyOp18
 70
     1
102
RTVSPropertyOp19
 70
     1
102
RTVSPropertyOp20
 70
     1
102
RTVSPropertyOp21
 70
     1
102
RTVSPropertyOp22
 70
     1
102
RTVSPropertyOp23
 70
     1
102
RTVSPropertyOp24
 70
     1
102
RTVSPropertyOp25
 70
     1
102
RTVSPropertyOp26
 70
     1
102
RTVSPropertyOp27
 70
     1
102
RTVSPropertyOp28
 70
     1
102
RTVSPropertyOp29
 70
     1
102
RTVSPropertyOp30
 70
     1
102
RTVSPropertyOp31
 70
     1
102
RTVSPropertyOp32
 70
     1
  0
XRECORD
  5
3E4
102
{ACAD_REACTORS
330
3E3
102
}
330
3E3
100
AcDbXrecord
280
     1
102
RTVSPropertyOp0
 70
     1
102
RTVSPropertyOp1
 70
     1
102
RTVSPropertyOp2
 70
     1
102
RTVSPropertyOp3
 70
     1
102
RTVSPropertyOp4
 70
     1
102
RTVSPropertyOp5
 70
     1
102
RTVSPropertyOp6
 70
     1
102
RTVSPropertyOp7
 70
     1
102
RTVSPropertyOp8
 70
     1
102
RTVSPropertyOp9
 70
     1
102
RTVSPropertyOp10
 70
     1
102
RTVSPropertyOp11
 70
     1
102
RTVSPropertyOp12
 70
     1
102
RTVSPropertyOp13
 70
     1
102
RTVSPropertyOp14
 70
     1
102
RTVSPropertyOp15
 70
     1
102
RTVSPropertyOp16
 70
     1
102
RTVSPropertyOp17
 70
     1
102
RTVSPropertyOp18
 70
     1
102
RTVSPropertyOp19
 70
     1
102
RTVSPropertyOp20
 70
     1
102
RTVSPropertyOp21
 70
     1
102
RTVSPropertyOp22
 70
     1
102
RTVSPropertyOp23
 70
     1
102
RTVSPropertyOp24
 70
     1
102
RTVSPropertyOp25
 70
     1
102
RTVSPropertyOp26
 70
     1
102
RTVSPropertyOp27
 70
     1
102
RTVSPropertyOp28
 70
     1
102
RTVSPropertyOp29
 70
     1
102
RTVSPropertyOp30
 70
     1
102
RTVSPropertyOp31
 70
     1
102
RTVSPropertyOp32
 70
     1
  0
XRECORD
  5
3D6
102
{ACAD_REACTORS
330
3D5
102
}
330
3D5
100
AcDbXrecord
280
     1
102
RTVSPropertyOp0
 70
     1
102
RTVSPropertyOp1
 70
     1
102
RTVSPropertyOp2
 70
     1
102
RTVSPropertyOp3
 70
     1
102
RTVSPropertyOp4
 70
     1
102
RTVSPropertyOp5
 70
     1
102
RTVSPropertyOp6
 70
     1
102
RTVSPropertyOp7
 70
     1
102
RTVSPropertyOp8
 70
     1
102
RTVSPropertyOp9
 70
     1
102
RTVSPropertyOp10
 70
     1
102
RTVSPropertyOp11
 70
     1
102
RTVSPropertyOp12
 70
     1
102
RTVSPropertyOp13
 70
     1
102
RTVSPropertyOp14
 70
     1
102
RTVSPropertyOp15
 70
     1
102
RTVSPropertyOp16
 70
     1
102
RTVSPropertyOp17
 70
     1
102
RTVSPropertyOp18
 70
     1
102
RTVSPropertyOp19
 70
     1
102
RTVSPropertyOp20
 70
     1
102
RTVSPropertyOp21
 70
     1
102
RTVSPropertyOp22
 70
     1
102
RTVSPropertyOp23
 70
     1
102
RTVSPropertyOp24
 70
     1
102
RTVSPropertyOp25
 70
     1
102
RTVSPropertyOp26
 70
     1
102
RTVSPropertyOp27
 70
     1
102
RTVSPropertyOp28
 70
     1
102
RTVSPropertyOp29
 70
     1
102
RTVSPropertyOp30
 70
     1
102
RTVSPropertyOp31
 70
     1
102
RTVSPropertyOp32
 70
     1
  0
XRECORD
  5
3DA
102
{ACAD_REACTORS
330
3D9
102
}
330
3D9
100
AcDbXrecord
280
     1
102
RTVSPropertyOp0
 70
     1
102
RTVSPropertyOp1
 70
     1
102
RTVSPropertyOp2
 70
     1
102
RTVSPropertyOp3
 70
     1
102
RTVSPropertyOp4
 70
     1
102
RTVSPropertyOp5
 70
     1
102
RTVSPropertyOp6
 70
     1
102
RTVSPropertyOp7
 70
     1
102
RTVSPropertyOp8
 70
     1
102
RTVSPropertyOp9
 70
     1
102
RTVSPropertyOp10
 70
     1
102
RTVSPropertyOp11
 70
     1
102
RTVSPropertyOp12
 70
     1
102
RTVSPropertyOp13
 70
     1
102
RTVSPropertyOp14
 70
     1
102
RTVSPropertyOp15
 70
     1
102
RTVSPropertyOp16
 70
     1
102
RTVSPropertyOp17
 70
     1
102
RTVSPropertyOp18
 70
     1
102
RTVSPropertyOp19
 70
     1
102
RTVSPropertyOp20
 70
     1
102
RTVSPropertyOp21
 70
     1
102
RTVSPropertyOp22
 70
     1
102
RTVSPropertyOp23
 70
     1
102
RTVSPropertyOp24
 70
     1
102
RTVSPropertyOp25
 70
     1
102
RTVSPropertyOp26
 70
     1
102
RTVSPropertyOp27
 70
     1
102
RTVSPropertyOp28
 70
     1
102
RTVSPropertyOp29
 70
     1
102
RTVSPropertyOp30
 70
     1
102
RTVSPropertyOp31
 70
     1
102
RTVSPropertyOp32
 70
     1
  0
XRECORD
  5
3F4
102
{ACAD_REACTORS
330
3F3
102
}
330
3F3
100
AcDbXrecord
280
     1
102
RTVSPropertyOp0
 70
     0
102
RTVSPropertyOp1
 70
     0
102
RTVSPropertyOp2
 70
     0
102
RTVSPropertyOp3
 70
     0
102
RTVSPropertyOp4
 70
     0
102
RTVSPropertyOp5
 70
     0
102
RTVSPropertyOp6
 70
     0
102
RTVSPropertyOp7
 70
     0
102
RTVSPropertyOp8
 70
     0
102
RTVSPropertyOp9
 70
     0
102
RTVSPropertyOp10
 70
     0
102
RTVSPropertyOp11
 70
     0
102
RTVSPropertyOp12
 70
     0
102
RTVSPropertyOp13
 70
     0
102
RTVSPropertyOp14
 70
     2
102
RTVSPropertyOp15
 70
     0
102
RTVSPropertyOp16
 70
     0
102
RTVSPropertyOp17
 70
     0
102
RTVSPropertyOp18
 70
     0
102
RTVSPropertyOp19
 70
     0
102
RTVSPropertyOp20
 70
     0
102
RTVSPropertyOp21
 70
     0
102
RTVSPropertyOp22
 70
     0
102
RTVSPropertyOp23
 70
     0
102
RTVSPropertyOp24
 70
     0
102
RTVSPropertyOp25
 70
     0
102
RTVSPropertyOp26
 70
     0
102
RTVSPropertyOp27
 70
     0
102
RTVSPropertyOp28
 70
     0
102
RTVSPropertyOp29
 70
     0
102
RTVSPropertyOp30
 70
     0
102
RTVSPropertyOp31
 70
     0
102
RTVSPropertyOp32
 70
     0
  0
XRECORD
  5
3E2
102
{ACAD_REACTORS
330
3E1
102
}
330
3E1
100
AcDbXrecord
280
     1
102
RTVSPropertyOp0
 70
     1
102
RTVSPropertyOp1
 70
     1
102
RTVSPropertyOp2
 70
     1
102
RTVSPropertyOp3
 70
     1
102
RTVSPropertyOp4
 70
     1
102
RTVSPropertyOp5
 70
     1
102
RTVSPropertyOp6
 70
     1
102
RTVSPropertyOp7
 70
     1
102
RTVSPropertyOp8
 70
     1
102
RTVSPropertyOp9
 70
     1
102
RTVSPropertyOp10
 70
     1
102
RTVSPropertyOp11
 70
     1
102
RTVSPropertyOp12
 70
     1
102
RTVSPropertyOp13
 70
     1
102
RTVSPropertyOp14
 70
     1
102
RTVSPropertyOp15
 70
     1
102
RTVSPropertyOp16
 70
     1
102
RTVSPropertyOp17
 70
     1
102
RTVSPropertyOp18
 70
     1
102
RTVSPropertyOp19
 70
     1
102
RTVSPropertyOp20
 70
     1
102
RTVSPropertyOp21
 70
     1
102
RTVSPropertyOp22
 70
     1
102
RTVSPropertyOp23
 70
     1
102
RTVSPropertyOp24
 70
     1
102
RTVSPropertyOp25
 70
     1
102
RTVSPropertyOp26
 70
     1
102
RTVSPropertyOp27
 70
     1
102
RTVSPropertyOp28
 70
     1
102
RTVSPropertyOp29
 70
     1
102
RTVSPropertyOp30
 70
     1
102
RTVSPropertyOp31
 70
     1
102
RTVSPropertyOp32
 70
     1
  0
XRECORD
  5
3C6
102
{ACAD_REACTORS
330
3C5
102
}
330
3C5
100
AcDbXrecord
280
     1
102
RTVSPropertyOp0
 70
     1
102
RTVSPropertyOp1
 70
     1
102
RTVSPropertyOp2
 70
     1
102
RTVSPropertyOp3
 70
     1
102
RTVSPropertyOp4
 70
     1
102
RTVSPropertyOp5
 70
     1
102
RTVSPropertyOp6
 70
     1
102
RTVSPropertyOp7
 70
     1
102
RTVSPropertyOp8
 70
     1
102
RTVSPropertyOp9
 70
     1
102
RTVSPropertyOp10
 70
     1
102
RTVSPropertyOp11
 70
     1
102
RTVSPropertyOp12
 70
     1
102
RTVSPropertyOp13
 70
     1
102
RTVSPropertyOp14
 70
     1
102
RTVSPropertyOp15
 70
     1
102
RTVSPropertyOp16
 70
     1
102
RTVSPropertyOp17
 70
     1
102
RTVSPropertyOp18
 70
     1
102
RTVSPropertyOp19
 70
     1
102
RTVSPropertyOp20
 70
     1
102
RTVSPropertyOp21
 70
     1
102
RTVSPropertyOp22
 70
     1
102
RTVSPropertyOp23
 70
     1
102
RTVSPropertyOp24
 70
     1
102
RTVSPropertyOp25
 70
     1
102
RTVSPropertyOp26
 70
     1
102
RTVSPropertyOp27
 70
     1
102
RTVSPropertyOp28
 70
     1
102
RTVSPropertyOp29
 70
     1
102
RTVSPropertyOp30
 70
     1
102
RTVSPropertyOp31
 70
     1
102
RTVSPropertyOp32
 70
     1
  0
XRECORD
  5
3C8
102
{ACAD_REACTORS
330
3C7
102
}
330
3C7
100
AcDbXrecord
280
     1
102
RTVSPropertyOp0
 70
     1
102
RTVSPropertyOp1
 70
     1
102
RTVSPropertyOp2
 70
     1
102
RTVSPropertyOp3
 70
     1
102
RTVSPropertyOp4
 70
     1
102
RTVSPropertyOp5
 70
     1
102
RTVSPropertyOp6
 70
     1
102
RTVSPropertyOp7
 70
     1
102
RTVSPropertyOp8
 70
     1
102
RTVSPropertyOp9
 70
     1
102
RTVSPropertyOp10
 70
     1
102
RTVSPropertyOp11
 70
     1
102
RTVSPropertyOp12
 70
     1
102
RTVSPropertyOp13
 70
     1
102
RTVSPropertyOp14
 70
     1
102
RTVSPropertyOp15
 70
     1
102
RTVSPropertyOp16
 70
     1
102
RTVSPropertyOp17
 70
     1
102
RTVSPropertyOp18
 70
     1
102
RTVSPropertyOp19
 70
     1
102
RTVSPropertyOp20
 70
     1
102
RTVSPropertyOp21
 70
     1
102
RTVSPropertyOp22
 70
     1
102
RTVSPropertyOp23
 70
     1
102
RTVSPropertyOp24
 70
     1
102
RTVSPropertyOp25
 70
     1
102
RTVSPropertyOp26
 70
     1
102
RTVSPropertyOp27
 70
     1
102
RTVSPropertyOp28
 70
     1
102
RTVSPropertyOp29
 70
     1
102
RTVSPropertyOp30
 70
     1
102
RTVSPropertyOp31
 70
     1
102
RTVSPropertyOp32
 70
     1
  0
XRECORD
  5
3CA
102
{ACAD_REACTORS
330
3C9
102
}
330
3C9
100
AcDbXrecord
280
     1
102
RTVSPropertyOp0
 70
     1
102
RTVSPropertyOp1
 70
     1
102
RTVSPropertyOp2
 70
     1
102
RTVSPropertyOp3
 70
     1
102
RTVSPropertyOp4
 70
     1
102
RTVSPropertyOp5
 70
     1
102
RTVSPropertyOp6
 70
     1
102
RTVSPropertyOp7
 70
     1
102
RTVSPropertyOp8
 70
     1
102
RTVSPropertyOp9
 70
     1
102
RTVSPropertyOp10
 70
     1
102
RTVSPropertyOp11
 70
     1
102
RTVSPropertyOp12
 70
     1
102
RTVSPropertyOp13
 70
     1
102
RTVSPropertyOp14
 70
     1
102
RTVSPropertyOp15
 70
     1
102
RTVSPropertyOp16
 70
     1
102
RTVSPropertyOp17
 70
     1
102
RTVSPropertyOp18
 70
     1
102
RTVSPropertyOp19
 70
     1
102
RTVSPropertyOp20
 70
     1
102
RTVSPropertyOp21
 70
     1
102
RTVSPropertyOp22
 70
     1
102
RTVSPropertyOp23
 70
     1
102
RTVSPropertyOp24
 70
     1
102
RTVSPropertyOp25
 70
     1
102
RTVSPropertyOp26
 70
     1
102
RTVSPropertyOp27
 70
     1
102
RTVSPropertyOp28
 70
     1
102
RTVSPropertyOp29
 70
     1
102
RTVSPropertyOp30
 70
     1
102
RTVSPropertyOp31
 70
     1
102
RTVSPropertyOp32
 70
     1
  0
XRECORD
  5
3CC
102
{ACAD_REACTORS
330
3CB
102
}
330
3CB
100
AcDbXrecord
280
     1
102
RTVSPropertyOp0
 70
     1
102
RTVSPropertyOp1
 70
     1
102
RTVSPropertyOp2
 70
     1
102
RTVSPropertyOp3
 70
     1
102
RTVSPropertyOp4
 70
     1
102
RTVSPropertyOp5
 70
     1
102
RTVSPropertyOp6
 70
     1
102
RTVSPropertyOp7
 70
     1
102
RTVSPropertyOp8
 70
     1
102
RTVSPropertyOp9
 70
     1
102
RTVSPropertyOp10
 70
     1
102
RTVSPropertyOp11
 70
     1
102
RTVSPropertyOp12
 70
     1
102
RTVSPropertyOp13
 70
     1
102
RTVSPropertyOp14
 70
     1
102
RTVSPropertyOp15
 70
     1
102
RTVSPropertyOp16
 70
     1
102
RTVSPropertyOp17
 70
     1
102
RTVSPropertyOp18
 70
     1
102
RTVSPropertyOp19
 70
     1
102
RTVSPropertyOp20
 70
     1
102
RTVSPropertyOp21
 70
     1
102
RTVSPropertyOp22
 70
     1
102
RTVSPropertyOp23
 70
     1
102
RTVSPropertyOp24
 70
     1
102
RTVSPropertyOp25
 70
     1
102
RTVSPropertyOp26
 70
     1
102
RTVSPropertyOp27
 70
     1
102
RTVSPropertyOp28
 70
     1
102
RTVSPropertyOp29
 70
     1
102
RTVSPropertyOp30
 70
     1
102
RTVSPropertyOp31
 70
     1
102
RTVSPropertyOp32
 70
     1
  0
XRECORD
  5
3D4
102
{ACAD_REACTORS
330
3D3
102
}
330
3D3
100
AcDbXrecord
280
     1
102
RTVSPropertyOp0
 70
     1
102
RTVSPropertyOp1
 70
     1
102
RTVSPropertyOp2
 70
     1
102
RTVSPropertyOp3
 70
     1
102
RTVSPropertyOp4
 70
     1
102
RTVSPropertyOp5
 70
     1
102
RTVSPropertyOp6
 70
     1
102
RTVSPropertyOp7
 70
     1
102
RTVSPropertyOp8
 70
     1
102
RTVSPropertyOp9
 70
     1
102
RTVSPropertyOp10
 70
     1
102
RTVSPropertyOp11
 70
     1
102
RTVSPropertyOp12
 70
     1
102
RTVSPropertyOp13
 70
     1
102
RTVSPropertyOp14
 70
     1
102
RTVSPropertyOp15
 70
     1
102
RTVSPropertyOp16
 70
     1
102
RTVSPropertyOp17
 70
     1
102
RTVSPropertyOp18
 70
     1
102
RTVSPropertyOp19
 70
     1
102
RTVSPropertyOp20
 70
     1
102
RTVSPropertyOp21
 70
     1
102
RTVSPropertyOp22
 70
     1
102
RTVSPropertyOp23
 70
     1
102
RTVSPropertyOp24
 70
     1
102
RTVSPropertyOp25
 70
     1
102
RTVSPropertyOp26
 70
     1
102
RTVSPropertyOp27
 70
     1
102
RTVSPropertyOp28
 70
     1
102
RTVSPropertyOp29
 70
     1
102
RTVSPropertyOp30
 70
     1
102
RTVSPropertyOp31
 70
     1
102
RTVSPropertyOp32
 70
     1
  0
XRECORD
  5
3F0
102
{ACAD_REACTORS
330
3EF
102
}
330
3EF
100
AcDbXrecord
280
     1
102
RTVSPropertyOp0
 70
     0
102
RTVSPropertyOp1
 70
     0
102
RTVSPropertyOp2
 70
     0
102
RTVSPropertyOp3
 70
     0
102
RTVSPropertyOp4
 70
     0
102
RTVSPropertyOp5
 70
     0
102
RTVSPropertyOp6
 70
     0
102
RTVSPropertyOp7
 70
     0
102
RTVSPropertyOp8
 70
     0
102
RTVSPropertyOp9
 70
     0
102
RTVSPropertyOp10
 70
     0
102
RTVSPropertyOp11
 70
     0
102
RTVSPropertyOp12
 70
     0
102
RTVSPropertyOp13
 70
     0
102
RTVSPropertyOp14
 70
     2
102
RTVSPropertyOp15
 70
     0
102
RTVSPropertyOp16
 70
     0
102
RTVSPropertyOp17
 70
     0
102
RTVSPropertyOp18
 70
     0
102
RTVSPropertyOp19
 70
     0
102
RTVSPropertyOp20
 70
     0
102
RTVSPropertyOp21
 70
     0
102
RTVSPropertyOp22
 70
     0
102
RTVSPropertyOp23
 70
     0
102
RTVSPropertyOp24
 70
     0
102
RTVSPropertyOp25
 70
     0
102
RTVSPropertyOp26
 70
     0
102
RTVSPropertyOp27
 70
     0
102
RTVSPropertyOp28
 70
     0
102
RTVSPropertyOp29
 70
     0
102
RTVSPropertyOp30
 70
     0
102
RTVSPropertyOp31
 70
     0
102
RTVSPropertyOp32
 70
     0
  0
XRECORD
  5
3E0
102
{ACAD_REACTORS
330
3DF
102
}
330
3DF
100
AcDbXrecord
280
     1
102
RTVSPropertyOp0
 70
     1
102
RTVSPropertyOp1
 70
     1
102
RTVSPropertyOp2
 70
     1
102
RTVSPropertyOp3
 70
     1
102
RTVSPropertyOp4
 70
     1
102
RTVSPropertyOp5
 70
     1
102
RTVSPropertyOp6
 70
     1
102
RTVSPropertyOp7
 70
     1
102
RTVSPropertyOp8
 70
     1
102
RTVSPropertyOp9
 70
     1
102
RTVSPropertyOp10
 70
     1
102
RTVSPropertyOp11
 70
     1
102
RTVSPropertyOp12
 70
     1
102
RTVSPropertyOp13
 70
     1
102
RTVSPropertyOp14
 70
     1
102
RTVSPropertyOp15
 70
     1
102
RTVSPropertyOp16
 70
     1
102
RTVSPropertyOp17
 70
     1
102
RTVSPropertyOp18
 70
     1
102
RTVSPropertyOp19
 70
     1
102
RTVSPropertyOp20
 70
     1
102
RTVSPropertyOp21
 70
     1
102
RTVSPropertyOp22
 70
     1
102
RTVSPropertyOp23
 70
     1
102
RTVSPropertyOp24
 70
     1
102
RTVSPropertyOp25
 70
     1
102
RTVSPropertyOp26
 70
     1
102
RTVSPropertyOp27
 70
     1
102
RTVSPropertyOp28
 70
     1
102
RTVSPropertyOp29
 70
     1
102
RTVSPropertyOp30
 70
     1
102
RTVSPropertyOp31
 70
     1
102
RTVSPropertyOp32
 70
     1
  0
XRECORD
  5
3F2
102
{ACAD_REACTORS
330
3F1
102
}
330
3F1
100
AcDbXrecord
280
     1
102
RTVSPropertyOp0
 70
     0
102
RTVSPropertyOp1
 70
     0
102
RTVSPropertyOp2
 70
     0
102
RTVSPropertyOp3
 70
     0
102
RTVSPropertyOp4
 70
     0
102
RTVSPropertyOp5
 70
     0
102
RTVSPropertyOp6
 70
     0
102
RTVSPropertyOp7
 70
     0
102
RTVSPropertyOp8
 70
     0
102
RTVSPropertyOp9
 70
     0
102
RTVSPropertyOp10
 70
     0
102
RTVSPropertyOp11
 70
     0
102
RTVSPropertyOp12
 70
     0
102
RTVSPropertyOp13
 70
     0
102
RTVSPropertyOp14
 70
     2
102
RTVSPropertyOp15
 70
     0
102
RTVSPropertyOp16
 70
     0
102
RTVSPropertyOp17
 70
     0
102
RTVSPropertyOp18
 70
     0
102
RTVSPropertyOp19
 70
     0
102
RTVSPropertyOp20
 70
     0
102
RTVSPropertyOp21
 70
     0
102
RTVSPropertyOp22
 70
     0
102
RTVSPropertyOp23
 70
     0
102
RTVSPropertyOp24
 70
     0
102
RTVSPropertyOp25
 70
     0
102
RTVSPropertyOp26
 70
     0
102
RTVSPropertyOp27
 70
     0
102
RTVSPropertyOp28
 70
     0
102
RTVSPropertyOp29
 70
     0
102
RTVSPropertyOp30
 70
     0
102
RTVSPropertyOp31
 70
     0
102
RTVSPropertyOp32
 70
     0
  0
XRECORD
  5
3D8
102
{ACAD_REACTORS
330
3D7
102
}
330
3D7
100
AcDbXrecord
280
     1
102
RTVSPropertyOp0
 70
     1
102
RTVSPropertyOp1
 70
     1
102
RTVSPropertyOp2
 70
     1
102
RTVSPropertyOp3
 70
     1
102
RTVSPropertyOp4
 70
     1
102
RTVSPropertyOp5
 70
     1
102
RTVSPropertyOp6
 70
     1
102
RTVSPropertyOp7
 70
     1
102
RTVSPropertyOp8
 70
     1
102
RTVSPropertyOp9
 70
     1
102
RTVSPropertyOp10
 70
     1
102
RTVSPropertyOp11
 70
     1
102
RTVSPropertyOp12
 70
     1
102
RTVSPropertyOp13
 70
     1
102
RTVSPropertyOp14
 70
     1
102
RTVSPropertyOp15
 70
     1
102
RTVSPropertyOp16
 70
     1
102
RTVSPropertyOp17
 70
     1
102
RTVSPropertyOp18
 70
     1
102
RTVSPropertyOp19
 70
     1
102
RTVSPropertyOp20
 70
     1
102
RTVSPropertyOp21
 70
     1
102
RTVSPropertyOp22
 70
     1
102
RTVSPropertyOp23
 70
     1
102
RTVSPropertyOp24
 70
     1
102
RTVSPropertyOp25
 70
     1
102
RTVSPropertyOp26
 70
     1
102
RTVSPropertyOp27
 70
     1
102
RTVSPropertyOp28
 70
     1
102
RTVSPropertyOp29
 70
     1
102
RTVSPropertyOp30
 70
     1
102
RTVSPropertyOp31
 70
     1
102
RTVSPropertyOp32
 70
     1
  0
XRECORD
  5
3EE
102
{ACAD_REACTORS
330
3ED
102
}
330
3ED
100
AcDbXrecord
280
     1
102
RTVSPropertyOp0
 70
     1
102
RTVSPropertyOp1
 70
     1
102
RTVSPropertyOp2
 70
     1
102
RTVSPropertyOp3
 70
     1
102
RTVSPropertyOp4
 70
     1
102
RTVSPropertyOp5
 70
     1
102
RTVSPropertyOp6
 70
     1
102
RTVSPropertyOp7
 70
     1
102
RTVSPropertyOp8
 70
     1
102
RTVSPropertyOp9
 70
     1
102
RTVSPropertyOp10
 70
     1
102
RTVSPropertyOp11
 70
     1
102
RTVSPropertyOp12
 70
     1
102
RTVSPropertyOp13
 70
     1
102
RTVSPropertyOp14
 70
     1
102
RTVSPropertyOp15
 70
     1
102
RTVSPropertyOp16
 70
     1
102
RTVSPropertyOp17
 70
     1
102
RTVSPropertyOp18
 70
     1
102
RTVSPropertyOp19
 70
     1
102
RTVSPropertyOp20
 70
     1
102
RTVSPropertyOp21
 70
     1
102
RTVSPropertyOp22
 70
     1
102
RTVSPropertyOp23
 70
     1
102
RTVSPropertyOp24
 70
     1
102
RTVSPropertyOp25
 70
     1
102
RTVSPropertyOp26
 70
     1
102
RTVSPropertyOp27
 70
     1
102
RTVSPropertyOp28
 70
     1
102
RTVSPropertyOp29
 70
     1
102
RTVSPropertyOp30
 70
     1
102
RTVSPropertyOp31
 70
     1
102
RTVSPropertyOp32
 70
     1
  0
XRECORD
  5
3EC
102
{ACAD_REACTORS
330
3EB
102
}
330
3EB
100
AcDbXrecord
280
     1
102
RTVSPropertyOp0
 70
     1
102
RTVSPropertyOp1
 70
     1
102
RTVSPropertyOp2
 70
     1
102
RTVSPropertyOp3
 70
     1
102
RTVSPropertyOp4
 70
     1
102
RTVSPropertyOp5
 70
     1
102
RTVSPropertyOp6
 70
     1
102
RTVSPropertyOp7
 70
     1
102
RTVSPropertyOp8
 70
     1
102
RTVSPropertyOp9
 70
     1
102
RTVSPropertyOp10
 70
     1
102
RTVSPropertyOp11
 70
     1
102
RTVSPropertyOp12
 70
     1
102
RTVSPropertyOp13
 70
     1
102
RTVSPropertyOp14
 70
     1
102
RTVSPropertyOp15
 70
     1
102
RTVSPropertyOp16
 70
     1
102
RTVSPropertyOp17
 70
     1
102
RTVSPropertyOp18
 70
     1
102
RTVSPropertyOp19
 70
     1
102
RTVSPropertyOp20
 70
     1
102
RTVSPropertyOp21
 70
     1
102
RTVSPropertyOp22
 70
     1
102
RTVSPropertyOp23
 70
     1
102
RTVSPropertyOp24
 70
     1
102
RTVSPropertyOp25
 70
     1
102
RTVSPropertyOp26
 70
     1
102
RTVSPropertyOp27
 70
     1
102
RTVSPropertyOp28
 70
     1
102
RTVSPropertyOp29
 70
     1
102
RTVSPropertyOp30
 70
     1
102
RTVSPropertyOp31
 70
     1
102
RTVSPropertyOp32
 70
     1
  0
XRECORD
  5
3E6
102
{ACAD_REACTORS
330
3E5
102
}
330
3E5
100
AcDbXrecord
280
     1
102
RTVSPropertyOp0
 70
     1
102
RTVSPropertyOp1
 70
     1
102
RTVSPropertyOp2
 70
     1
102
RTVSPropertyOp3
 70
     1
102
RTVSPropertyOp4
 70
     1
102
RTVSPropertyOp5
 70
     1
102
RTVSPropertyOp6
 70
     1
102
RTVSPropertyOp7
 70
     1
102
RTVSPropertyOp8
 70
     1
102
RTVSPropertyOp9
 70
     1
102
RTVSPropertyOp10
 70
     1
102
RTVSPropertyOp11
 70
     1
102
RTVSPropertyOp12
 70
     1
102
RTVSPropertyOp13
 70
     1
102
RTVSPropertyOp14
 70
     1
102
RTVSPropertyOp15
 70
     1
102
RTVSPropertyOp16
 70
     1
102
RTVSPropertyOp17
 70
     1
102
RTVSPropertyOp18
 70
     1
102
RTVSPropertyOp19
 70
     1
102
RTVSPropertyOp20
 70
     1
102
RTVSPropertyOp21
 70
     1
102
RTVSPropertyOp22
 70
     1
102
RTVSPropertyOp23
 70
     1
102
RTVSPropertyOp24
 70
     1
102
RTVSPropertyOp25
 70
     1
102
RTVSPropertyOp26
 70
     1
102
RTVSPropertyOp27
 70
     1
102
RTVSPropertyOp28
 70
     1
102
RTVSPropertyOp29
 70
     1
102
RTVSPropertyOp30
 70
     1
102
RTVSPropertyOp31
 70
     1
102
RTVSPropertyOp32
 70
     1
  0
XRECORD
  5
3E8
102
{ACAD_REACTORS
330
3E7
102
}
330
3E7
100
AcDbXrecord
280
     1
102
RTVSPropertyOp0
 70
     1
102
RTVSPropertyOp1
 70
     1
102
RTVSPropertyOp2
 70
     1
102
RTVSPropertyOp3
 70
     1
102
RTVSPropertyOp4
 70
     1
102
RTVSPropertyOp5
 70
     1
102
RTVSPropertyOp6
 70
     1
102
RTVSPropertyOp7
 70
     1
102
RTVSPropertyOp8
 70
     1
102
RTVSPropertyOp9
 70
     1
102
RTVSPropertyOp10
 70
     1
102
RTVSPropertyOp11
 70
     1
102
RTVSPropertyOp12
 70
     1
102
RTVSPropertyOp13
 70
     1
102
RTVSPropertyOp14
 70
     1
102
RTVSPropertyOp15
 70
     1
102
RTVSPropertyOp16
 70
     1
102
RTVSPropertyOp17
 70
     1
102
RTVSPropertyOp18
 70
     1
102
RTVSPropertyOp19
 70
     1
102
RTVSPropertyOp20
 70
     1
102
RTVSPropertyOp21
 70
     1
102
RTVSPropertyOp22
 70
     1
102
RTVSPropertyOp23
 70
     1
102
RTVSPropertyOp24
 70
     1
102
RTVSPropertyOp25
 70
     1
102
RTVSPropertyOp26
 70
     1
102
RTVSPropertyOp27
 70
     1
102
RTVSPropertyOp28
 70
     1
102
RTVSPropertyOp29
 70
     1
102
RTVSPropertyOp30
 70
     1
102
RTVSPropertyOp31
 70
     1
102
RTVSPropertyOp32
 70
     1
  0
XRECORD
  5
3DE
102
{ACAD_REACTORS
330
3DD
102
}
330
3DD
100
AcDbXrecord
280
     1
102
RTVSPropertyOp0
 70
     1
102
RTVSPropertyOp1
 70
     1
102
RTVSPropertyOp2
 70
     1
102
RTVSPropertyOp3
 70
     1
102
RTVSPropertyOp4
 70
     1
102
RTVSPropertyOp5
 70
     1
102
RTVSPropertyOp6
 70
     1
102
RTVSPropertyOp7
 70
     1
102
RTVSPropertyOp8
 70
     1
102
RTVSPropertyOp9
 70
     1
102
RTVSPropertyOp10
 70
     1
102
RTVSPropertyOp11
 70
     1
102
RTVSPropertyOp12
 70
     1
102
RTVSPropertyOp13
 70
     1
102
RTVSPropertyOp14
 70
     1
102
RTVSPropertyOp15
 70
     1
102
RTVSPropertyOp16
 70
     1
102
RTVSPropertyOp17
 70
     1
102
RTVSPropertyOp18
 70
     1
102
RTVSPropertyOp19
 70
     1
102
RTVSPropertyOp20
 70
     1
102
RTVSPropertyOp21
 70
     1
102
RTVSPropertyOp22
 70
     1
102
RTVSPropertyOp23
 70
     1
102
RTVSPropertyOp24
 70
     1
102
RTVSPropertyOp25
 70
     1
102
RTVSPropertyOp26
 70
     1
102
RTVSPropertyOp27
 70
     1
102
RTVSPropertyOp28
 70
     1
102
RTVSPropertyOp29
 70
     1
102
RTVSPropertyOp30
 70
     1
102
RTVSPropertyOp31
 70
     1
102
RTVSPropertyOp32
 70
     1
  0
XRECORD
  5
3D2
102
{ACAD_REACTORS
330
3D1
102
}
330
3D1
100
AcDbXrecord
280
     1
102
RTVSPropertyOp0
 70
     1
102
RTVSPropertyOp1
 70
     1
102
RTVSPropertyOp2
 70
     1
102
RTVSPropertyOp3
 70
     1
102
RTVSPropertyOp4
 70
     1
102
RTVSPropertyOp5
 70
     1
102
RTVSPropertyOp6
 70
     1
102
RTVSPropertyOp7
 70
     1
102
RTVSPropertyOp8
 70
     1
102
RTVSPropertyOp9
 70
     1
102
RTVSPropertyOp10
 70
     1
102
RTVSPropertyOp11
 70
     1
102
RTVSPropertyOp12
 70
     1
102
RTVSPropertyOp13
 70
     1
102
RTVSPropertyOp14
 70
     1
102
RTVSPropertyOp15
 70
     1
102
RTVSPropertyOp16
 70
     1
102
RTVSPropertyOp17
 70
     1
102
RTVSPropertyOp18
 70
     1
102
RTVSPropertyOp19
 70
     1
102
RTVSPropertyOp20
 70
     1
102
RTVSPropertyOp21
 70
     1
102
RTVSPropertyOp22
 70
     1
102
RTVSPropertyOp23
 70
     1
102
RTVSPropertyOp24
 70
     1
102
RTVSPropertyOp25
 70
     1
102
RTVSPropertyOp26
 70
     1
102
RTVSPropertyOp27
 70
     1
102
RTVSPropertyOp28
 70
     1
102
RTVSPropertyOp29
 70
     1
102
RTVSPropertyOp30
 70
     1
102
RTVSPropertyOp31
 70
     1
102
RTVSPropertyOp32
 70
     1
  0
XRECORD
  5
3EA
102
{ACAD_REACTORS
330
3E9
102
}
330
3E9
100
AcDbXrecord
280
     1
102
RTVSPropertyOp0
 70
     1
102
RTVSPropertyOp1
 70
     1
102
RTVSPropertyOp2
 70
     1
102
RTVSPropertyOp3
 70
     1
102
RTVSPropertyOp4
 70
     1
102
RTVSPropertyOp5
 70
     1
102
RTVSPropertyOp6
 70
     1
102
RTVSPropertyOp7
 70
     1
102
RTVSPropertyOp8
 70
     1
102
RTVSPropertyOp9
 70
     1
102
RTVSPropertyOp10
 70
     1
102
RTVSPropertyOp11
 70
     1
102
RTVSPropertyOp12
 70
     1
102
RTVSPropertyOp13
 70
     1
102
RTVSPropertyOp14
 70
     1
102
RTVSPropertyOp15
 70
     1
102
RTVSPropertyOp16
 70
     1
102
RTVSPropertyOp17
 70
     1
102
RTVSPropertyOp18
 70
     1
102
RTVSPropertyOp19
 70
     1
102
RTVSPropertyOp20
 70
     1
102
RTVSPropertyOp21
 70
     1
102
RTVSPropertyOp22
 70
     1
102
RTVSPropertyOp23
 70
     1
102
RTVSPropertyOp24
 70
     1
102
RTVSPropertyOp25
 70
     1
102
RTVSPropertyOp26
 70
     1
102
RTVSPropertyOp27
 70
     1
102
RTVSPropertyOp28
 70
     1
102
RTVSPropertyOp29
 70
     1
102
RTVSPropertyOp30
 70
     1
102
RTVSPropertyOp31
 70
     1
102
RTVSPropertyOp32
 70
     1
  0
ENDSEC
  0
EOF
